ISO-10303-21;
HEADER;
/* Generated by software containing ST-Developer
 * from STEP Tools, Inc. (www.steptools.com) 
 */

FILE_DESCRIPTION(
/* description */ (''),
/* implementation_level */ '2;1');

FILE_NAME(
/* name */ 
'C:\\Workspace\\Documents\\Manufacturing\\33\\E\\Potmagneten\\GM16005\\
GM16005.stp',
/* time_stamp */ '2019-09-24T12:30:38+02:00',
/* author */ ('PV'),
/* organization */ (''),
/* preprocessor_version */ 'ST-DEVELOPER v17.2',
/* originating_system */ 'Autodesk Inventor 2019',
/* authorisation */ '');

FILE_SCHEMA (('AUTOMOTIVE_DESIGN { 1 0 10303 214 3 1 1 }'));
ENDSEC;

DATA;
#10=MECHANICAL_DESIGN_GEOMETRIC_PRESENTATION_REPRESENTATION('',(#29,#30,
#31,#32,#33,#34),#470);
#11=ITEM_DEFINED_TRANSFORMATION($,$,#294,#325);
#12=ITEM_DEFINED_TRANSFORMATION($,$,#310,#326);
#13=ITEM_DEFINED_TRANSFORMATION($,$,#316,#327);
#14=(
REPRESENTATION_RELATIONSHIP($,$,#487,#486)
REPRESENTATION_RELATIONSHIP_WITH_TRANSFORMATION(#11)
SHAPE_REPRESENTATION_RELATIONSHIP()
);
#15=(
REPRESENTATION_RELATIONSHIP($,$,#488,#486)
REPRESENTATION_RELATIONSHIP_WITH_TRANSFORMATION(#12)
SHAPE_REPRESENTATION_RELATIONSHIP()
);
#16=(
REPRESENTATION_RELATIONSHIP($,$,#489,#486)
REPRESENTATION_RELATIONSHIP_WITH_TRANSFORMATION(#13)
SHAPE_REPRESENTATION_RELATIONSHIP()
);
#17=CONTEXT_DEPENDENT_SHAPE_REPRESENTATION(#14,#483);
#18=CONTEXT_DEPENDENT_SHAPE_REPRESENTATION(#15,#484);
#19=CONTEXT_DEPENDENT_SHAPE_REPRESENTATION(#16,#485);
#20=NEXT_ASSEMBLY_USAGE_OCCURRENCE('E0120091/- - OUTER HOUSING:1',
'E0120091/- - OUTER HOUSING:1','E0120091/- - OUTER HOUSING:1',#491,#492,
'E0120091/- - OUTER HOUSING:1');
#21=NEXT_ASSEMBLY_USAGE_OCCURRENCE('E0120089/- - MAGNET:1',
'E0120089/- - MAGNET:1','E0120089/- - MAGNET:1',#491,#493,
'E0120089/- - MAGNET:1');
#22=NEXT_ASSEMBLY_USAGE_OCCURRENCE('E0120090/- - GLUE:1',
'E0120090/- - GLUE:1','E0120090/- - GLUE:1',#491,#494,
'E0120090/- - GLUE:1');
#23=SHAPE_REPRESENTATION_RELATIONSHIP('SRR','None',#487,#26);
#24=SHAPE_REPRESENTATION_RELATIONSHIP('SRR','None',#488,#27);
#25=SHAPE_REPRESENTATION_RELATIONSHIP('SRR','None',#489,#28);
#26=ADVANCED_BREP_SHAPE_REPRESENTATION('',(#35),#467);
#27=ADVANCED_BREP_SHAPE_REPRESENTATION('',(#36),#468);
#28=ADVANCED_BREP_SHAPE_REPRESENTATION('',(#37),#469);
#29=STYLED_ITEM('',(#242),#35);
#30=STYLED_ITEM('',(#243),#198);
#31=STYLED_ITEM('',(#243),#199);
#32=STYLED_ITEM('',(#243),#200);
#33=STYLED_ITEM('',(#242),#36);
#34=STYLED_ITEM('',(#244),#37);
#35=MANIFOLD_SOLID_BREP('Solid2',#205);
#36=MANIFOLD_SOLID_BREP('Solid2',#206);
#37=MANIFOLD_SOLID_BREP('Solid2',#207);
#38=FACE_BOUND('',#72,.T.);
#39=FACE_BOUND('',#81,.T.);
#40=FACE_BOUND('',#83,.T.);
#41=PLANE('',#302);
#42=PLANE('',#305);
#43=PLANE('',#309);
#44=PLANE('',#314);
#45=PLANE('',#315);
#46=PLANE('',#323);
#47=PLANE('',#324);
#48=CYLINDRICAL_SURFACE('',#299,8.);
#49=CYLINDRICAL_SURFACE('',#307,6.5);
#50=CYLINDRICAL_SURFACE('',#311,5.5);
#51=CYLINDRICAL_SURFACE('',#317,5.5);
#52=CYLINDRICAL_SURFACE('',#320,6.5);
#53=FACE_OUTER_BOUND('',#67,.T.);
#54=FACE_OUTER_BOUND('',#68,.T.);
#55=FACE_OUTER_BOUND('',#69,.T.);
#56=FACE_OUTER_BOUND('',#70,.T.);
#57=FACE_OUTER_BOUND('',#71,.T.);
#58=FACE_OUTER_BOUND('',#73,.T.);
#59=FACE_OUTER_BOUND('',#74,.T.);
#60=FACE_OUTER_BOUND('',#75,.T.);
#61=FACE_OUTER_BOUND('',#76,.T.);
#62=FACE_OUTER_BOUND('',#77,.T.);
#63=FACE_OUTER_BOUND('',#78,.T.);
#64=FACE_OUTER_BOUND('',#79,.T.);
#65=FACE_OUTER_BOUND('',#80,.T.);
#66=FACE_OUTER_BOUND('',#82,.T.);
#67=EDGE_LOOP('',(#147,#148,#149,#150,#151));
#68=EDGE_LOOP('',(#152,#153,#154,#155,#156,#157));
#69=EDGE_LOOP('',(#158));
#70=EDGE_LOOP('',(#159,#160,#161,#162,#163));
#71=EDGE_LOOP('',(#164));
#72=EDGE_LOOP('',(#165));
#73=EDGE_LOOP('',(#166,#167,#168,#169));
#74=EDGE_LOOP('',(#170));
#75=EDGE_LOOP('',(#171,#172,#173,#174));
#76=EDGE_LOOP('',(#175));
#77=EDGE_LOOP('',(#176));
#78=EDGE_LOOP('',(#177,#178,#179,#180));
#79=EDGE_LOOP('',(#181,#182,#183,#184));
#80=EDGE_LOOP('',(#185));
#81=EDGE_LOOP('',(#186));
#82=EDGE_LOOP('',(#187));
#83=EDGE_LOOP('',(#188));
#84=LINE('',#413,#91);
#85=LINE('',#420,#92);
#86=LINE('',#425,#93);
#87=LINE('',#431,#94);
#88=LINE('',#439,#95);
#89=LINE('',#448,#96);
#90=LINE('',#454,#97);
#91=VECTOR('',#338,7.9);
#92=VECTOR('',#347,8.);
#93=VECTOR('',#354,7.95);
#94=VECTOR('',#361,6.5);
#95=VECTOR('',#372,5.5);
#96=VECTOR('',#385,5.5);
#97=VECTOR('',#392,6.5);
#98=CIRCLE('',#296,8.);
#99=CIRCLE('',#297,8.);
#100=CIRCLE('',#298,7.8);
#101=CIRCLE('',#300,8.);
#102=CIRCLE('',#301,8.);
#103=CIRCLE('',#304,7.9);
#104=CIRCLE('',#306,6.5);
#105=CIRCLE('',#308,6.5);
#106=CIRCLE('',#312,5.5);
#107=CIRCLE('',#313,5.5);
#108=CIRCLE('',#318,5.5);
#109=CIRCLE('',#319,5.5);
#110=CIRCLE('',#321,6.5);
#111=CIRCLE('',#322,6.5);
#112=VERTEX_POINT('',#408);
#113=VERTEX_POINT('',#409);
#114=VERTEX_POINT('',#412);
#115=VERTEX_POINT('',#416);
#116=VERTEX_POINT('',#417);
#117=VERTEX_POINT('',#423);
#118=VERTEX_POINT('',#427);
#119=VERTEX_POINT('',#430);
#120=VERTEX_POINT('',#436);
#121=VERTEX_POINT('',#438);
#122=VERTEX_POINT('',#445);
#123=VERTEX_POINT('',#447);
#124=VERTEX_POINT('',#451);
#125=VERTEX_POINT('',#453);
#126=EDGE_CURVE('',#112,#113,#98,.T.);
#127=EDGE_CURVE('',#113,#112,#99,.T.);
#128=EDGE_CURVE('',#112,#114,#84,.T.);
#129=EDGE_CURVE('',#114,#114,#100,.T.);
#130=EDGE_CURVE('',#115,#116,#101,.T.);
#131=EDGE_CURVE('',#116,#115,#102,.T.);
#132=EDGE_CURVE('',#116,#113,#85,.T.);
#133=EDGE_CURVE('',#117,#117,#103,.T.);
#134=EDGE_CURVE('',#117,#115,#86,.T.);
#135=EDGE_CURVE('',#118,#118,#104,.T.);
#136=EDGE_CURVE('',#118,#119,#87,.T.);
#137=EDGE_CURVE('',#119,#119,#105,.T.);
#138=EDGE_CURVE('',#120,#120,#106,.T.);
#139=EDGE_CURVE('',#120,#121,#88,.T.);
#140=EDGE_CURVE('',#121,#121,#107,.T.);
#141=EDGE_CURVE('',#122,#122,#108,.T.);
#142=EDGE_CURVE('',#122,#123,#89,.T.);
#143=EDGE_CURVE('',#123,#123,#109,.T.);
#144=EDGE_CURVE('',#124,#124,#110,.T.);
#145=EDGE_CURVE('',#124,#125,#90,.T.);
#146=EDGE_CURVE('',#125,#125,#111,.T.);
#147=ORIENTED_EDGE('',*,*,#126,.T.);
#148=ORIENTED_EDGE('',*,*,#127,.T.);
#149=ORIENTED_EDGE('',*,*,#128,.T.);
#150=ORIENTED_EDGE('',*,*,#129,.T.);
#151=ORIENTED_EDGE('',*,*,#128,.F.);
#152=ORIENTED_EDGE('',*,*,#130,.F.);
#153=ORIENTED_EDGE('',*,*,#131,.F.);
#154=ORIENTED_EDGE('',*,*,#132,.T.);
#155=ORIENTED_EDGE('',*,*,#126,.F.);
#156=ORIENTED_EDGE('',*,*,#127,.F.);
#157=ORIENTED_EDGE('',*,*,#132,.F.);
#158=ORIENTED_EDGE('',*,*,#129,.F.);
#159=ORIENTED_EDGE('',*,*,#133,.T.);
#160=ORIENTED_EDGE('',*,*,#134,.T.);
#161=ORIENTED_EDGE('',*,*,#130,.T.);
#162=ORIENTED_EDGE('',*,*,#131,.T.);
#163=ORIENTED_EDGE('',*,*,#134,.F.);
#164=ORIENTED_EDGE('',*,*,#133,.F.);
#165=ORIENTED_EDGE('',*,*,#135,.T.);
#166=ORIENTED_EDGE('',*,*,#135,.F.);
#167=ORIENTED_EDGE('',*,*,#136,.T.);
#168=ORIENTED_EDGE('',*,*,#137,.T.);
#169=ORIENTED_EDGE('',*,*,#136,.F.);
#170=ORIENTED_EDGE('',*,*,#137,.F.);
#171=ORIENTED_EDGE('',*,*,#138,.F.);
#172=ORIENTED_EDGE('',*,*,#139,.T.);
#173=ORIENTED_EDGE('',*,*,#140,.F.);
#174=ORIENTED_EDGE('',*,*,#139,.F.);
#175=ORIENTED_EDGE('',*,*,#140,.T.);
#176=ORIENTED_EDGE('',*,*,#138,.T.);
#177=ORIENTED_EDGE('',*,*,#141,.F.);
#178=ORIENTED_EDGE('',*,*,#142,.T.);
#179=ORIENTED_EDGE('',*,*,#143,.F.);
#180=ORIENTED_EDGE('',*,*,#142,.F.);
#181=ORIENTED_EDGE('',*,*,#144,.F.);
#182=ORIENTED_EDGE('',*,*,#145,.T.);
#183=ORIENTED_EDGE('',*,*,#146,.F.);
#184=ORIENTED_EDGE('',*,*,#145,.F.);
#185=ORIENTED_EDGE('',*,*,#146,.T.);
#186=ORIENTED_EDGE('',*,*,#141,.T.);
#187=ORIENTED_EDGE('',*,*,#144,.T.);
#188=ORIENTED_EDGE('',*,*,#143,.T.);
#189=CONICAL_SURFACE('',#295,7.9,0.785398163397454);
#190=CONICAL_SURFACE('',#303,7.95,0.785398163397437);
#191=ADVANCED_FACE('',(#53),#189,.T.);
#192=ADVANCED_FACE('',(#54),#48,.T.);
#193=ADVANCED_FACE('',(#55),#41,.T.);
#194=ADVANCED_FACE('',(#56),#190,.T.);
#195=ADVANCED_FACE('',(#57,#38),#42,.T.);
#196=ADVANCED_FACE('',(#58),#49,.F.);
#197=ADVANCED_FACE('',(#59),#43,.F.);
#198=ADVANCED_FACE('',(#60),#50,.T.);
#199=ADVANCED_FACE('',(#61),#44,.F.);
#200=ADVANCED_FACE('',(#62),#45,.T.);
#201=ADVANCED_FACE('',(#63),#51,.F.);
#202=ADVANCED_FACE('',(#64),#52,.T.);
#203=ADVANCED_FACE('',(#65,#39),#46,.F.);
#204=ADVANCED_FACE('',(#66,#40),#47,.T.);
#205=CLOSED_SHELL('',(#191,#192,#193,#194,#195,#196,#197));
#206=CLOSED_SHELL('',(#198,#199,#200));
#207=CLOSED_SHELL('',(#201,#202,#203,#204));
#208=DERIVED_UNIT_ELEMENT(#214,1.);
#209=DERIVED_UNIT_ELEMENT(#472,3.);
#210=DERIVED_UNIT_ELEMENT(#214,1.);
#211=DERIVED_UNIT_ELEMENT(#472,3.);
#212=DERIVED_UNIT_ELEMENT(#214,1.);
#213=DERIVED_UNIT_ELEMENT(#472,3.);
#214=(
MASS_UNIT()
NAMED_UNIT(*)
SI_UNIT($,.GRAM.)
);
#215=DERIVED_UNIT((#208,#209));
#216=DERIVED_UNIT((#210,#211));
#217=DERIVED_UNIT((#212,#213));
#218=MEASURE_REPRESENTATION_ITEM('density measure',
POSITIVE_RATIO_MEASURE(7.85),#215);
#219=MEASURE_REPRESENTATION_ITEM('density measure',
POSITIVE_RATIO_MEASURE(7.85),#216);
#220=MEASURE_REPRESENTATION_ITEM('density measure',
POSITIVE_RATIO_MEASURE(1.),#217);
#221=PROPERTY_DEFINITION_REPRESENTATION(#236,#227);
#222=PROPERTY_DEFINITION_REPRESENTATION(#237,#228);
#223=PROPERTY_DEFINITION_REPRESENTATION(#238,#229);
#224=PROPERTY_DEFINITION_REPRESENTATION(#239,#230);
#225=PROPERTY_DEFINITION_REPRESENTATION(#240,#231);
#226=PROPERTY_DEFINITION_REPRESENTATION(#241,#232);
#227=REPRESENTATION('material name',(#233),#467);
#228=REPRESENTATION('density',(#218),#467);
#229=REPRESENTATION('material name',(#234),#468);
#230=REPRESENTATION('density',(#219),#468);
#231=REPRESENTATION('material name',(#235),#469);
#232=REPRESENTATION('density',(#220),#469);
#233=DESCRIPTIVE_REPRESENTATION_ITEM('Steel, Carbon','Steel, Carbon');
#234=DESCRIPTIVE_REPRESENTATION_ITEM('Steel, Carbon','Steel, Carbon');
#235=DESCRIPTIVE_REPRESENTATION_ITEM('PE','PE');
#236=PROPERTY_DEFINITION('material property','material name',#492);
#237=PROPERTY_DEFINITION('material property','density of part',#492);
#238=PROPERTY_DEFINITION('material property','material name',#493);
#239=PROPERTY_DEFINITION('material property','density of part',#493);
#240=PROPERTY_DEFINITION('material property','material name',#494);
#241=PROPERTY_DEFINITION('material property','density of part',#494);
#242=PRESENTATION_STYLE_ASSIGNMENT((#245));
#243=PRESENTATION_STYLE_ASSIGNMENT((#246));
#244=PRESENTATION_STYLE_ASSIGNMENT((#247));
#245=SURFACE_STYLE_USAGE(.BOTH.,#254);
#246=SURFACE_STYLE_USAGE(.BOTH.,#255);
#247=SURFACE_STYLE_USAGE(.BOTH.,#256);
#248=SURFACE_STYLE_RENDERING_WITH_PROPERTIES($,#266,(#251));
#249=SURFACE_STYLE_RENDERING_WITH_PROPERTIES($,#267,(#252));
#250=SURFACE_STYLE_RENDERING_WITH_PROPERTIES($,#268,(#253));
#251=SURFACE_STYLE_TRANSPARENT(0.);
#252=SURFACE_STYLE_TRANSPARENT(0.);
#253=SURFACE_STYLE_TRANSPARENT(0.);
#254=SURFACE_SIDE_STYLE('',(#257,#248));
#255=SURFACE_SIDE_STYLE('',(#258,#249));
#256=SURFACE_SIDE_STYLE('',(#259,#250));
#257=SURFACE_STYLE_FILL_AREA(#260);
#258=SURFACE_STYLE_FILL_AREA(#261);
#259=SURFACE_STYLE_FILL_AREA(#262);
#260=FILL_AREA_STYLE('',(#263));
#261=FILL_AREA_STYLE('',(#264));
#262=FILL_AREA_STYLE('',(#265));
#263=FILL_AREA_STYLE_COLOUR('',#266);
#264=FILL_AREA_STYLE_COLOUR('',#267);
#265=FILL_AREA_STYLE_COLOUR('',#268);
#266=COLOUR_RGB('',0.745098039215686,0.737254901960784,0.729411764705882);
#267=COLOUR_RGB('',0.501960784313725,1.,0.501960784313725);
#268=COLOUR_RGB('',0.,0.,0.);
#269=DATE_TIME_ROLE('creation_date');
#270=DATE_TIME_ROLE('creation_date');
#271=DATE_TIME_ROLE('creation_date');
#272=DATE_TIME_ROLE('creation_date');
#273=APPLIED_DATE_AND_TIME_ASSIGNMENT(#277,#269,(#491));
#274=APPLIED_DATE_AND_TIME_ASSIGNMENT(#278,#270,(#492));
#275=APPLIED_DATE_AND_TIME_ASSIGNMENT(#279,#271,(#493));
#276=APPLIED_DATE_AND_TIME_ASSIGNMENT(#280,#272,(#494));
#277=DATE_AND_TIME(#281,#285);
#278=DATE_AND_TIME(#282,#286);
#279=DATE_AND_TIME(#283,#287);
#280=DATE_AND_TIME(#284,#288);
#281=CALENDAR_DATE(2019,4,8);
#282=CALENDAR_DATE(2019,4,8);
#283=CALENDAR_DATE(2019,4,8);
#284=CALENDAR_DATE(2019,4,8);
#285=LOCAL_TIME(22,0,0.,#289);
#286=LOCAL_TIME(22,0,0.,#290);
#287=LOCAL_TIME(22,0,0.,#291);
#288=LOCAL_TIME(22,0,0.,#292);
#289=COORDINATED_UNIVERSAL_TIME_OFFSET(0,0,.BEHIND.);
#290=COORDINATED_UNIVERSAL_TIME_OFFSET(0,0,.BEHIND.);
#291=COORDINATED_UNIVERSAL_TIME_OFFSET(0,0,.BEHIND.);
#292=COORDINATED_UNIVERSAL_TIME_OFFSET(0,0,.BEHIND.);
#293=AXIS2_PLACEMENT_3D('placement',#405,#328,#329);
#294=AXIS2_PLACEMENT_3D('placement',#406,#330,#331);
#295=AXIS2_PLACEMENT_3D('',#407,#332,#333);
#296=AXIS2_PLACEMENT_3D('',#410,#334,#335);
#297=AXIS2_PLACEMENT_3D('',#411,#336,#337);
#298=AXIS2_PLACEMENT_3D('',#414,#339,#340);
#299=AXIS2_PLACEMENT_3D('',#415,#341,#342);
#300=AXIS2_PLACEMENT_3D('',#418,#343,#344);
#301=AXIS2_PLACEMENT_3D('',#419,#345,#346);
#302=AXIS2_PLACEMENT_3D('',#421,#348,#349);
#303=AXIS2_PLACEMENT_3D('',#422,#350,#351);
#304=AXIS2_PLACEMENT_3D('',#424,#352,#353);
#305=AXIS2_PLACEMENT_3D('',#426,#355,#356);
#306=AXIS2_PLACEMENT_3D('',#428,#357,#358);
#307=AXIS2_PLACEMENT_3D('',#429,#359,#360);
#308=AXIS2_PLACEMENT_3D('',#432,#362,#363);
#309=AXIS2_PLACEMENT_3D('',#433,#364,#365);
#310=AXIS2_PLACEMENT_3D('placement',#434,#366,#367);
#311=AXIS2_PLACEMENT_3D('',#435,#368,#369);
#312=AXIS2_PLACEMENT_3D('',#437,#370,#371);
#313=AXIS2_PLACEMENT_3D('',#440,#373,#374);
#314=AXIS2_PLACEMENT_3D('',#441,#375,#376);
#315=AXIS2_PLACEMENT_3D('',#442,#377,#378);
#316=AXIS2_PLACEMENT_3D('placement',#443,#379,#380);
#317=AXIS2_PLACEMENT_3D('',#444,#381,#382);
#318=AXIS2_PLACEMENT_3D('',#446,#383,#384);
#319=AXIS2_PLACEMENT_3D('',#449,#386,#387);
#320=AXIS2_PLACEMENT_3D('',#450,#388,#389);
#321=AXIS2_PLACEMENT_3D('',#452,#390,#391);
#322=AXIS2_PLACEMENT_3D('',#455,#393,#394);
#323=AXIS2_PLACEMENT_3D('',#456,#395,#396);
#324=AXIS2_PLACEMENT_3D('',#457,#397,#398);
#325=AXIS2_PLACEMENT_3D('',#458,#399,#400);
#326=AXIS2_PLACEMENT_3D('',#459,#401,#402);
#327=AXIS2_PLACEMENT_3D('',#460,#403,#404);
#328=DIRECTION('axis',(0.,0.,1.));
#329=DIRECTION('refdir',(1.,0.,0.));
#330=DIRECTION('axis',(0.,0.,1.));
#331=DIRECTION('refdir',(1.,0.,0.));
#332=DIRECTION('center_axis',(0.,-1.,0.));
#333=DIRECTION('ref_axis',(-1.,0.,0.));
#334=DIRECTION('center_axis',(0.,1.,0.));
#335=DIRECTION('ref_axis',(-1.,0.,0.));
#336=DIRECTION('center_axis',(0.,1.,0.));
#337=DIRECTION('ref_axis',(-1.,0.,0.));
#338=DIRECTION('',(-0.707106781186551,0.707106781186544,-8.65956056235498E-17));
#339=DIRECTION('center_axis',(0.,-1.,0.));
#340=DIRECTION('ref_axis',(-1.,0.,0.));
#341=DIRECTION('center_axis',(0.,-1.,0.));
#342=DIRECTION('ref_axis',(1.,0.,0.));
#343=DIRECTION('center_axis',(0.,-1.,0.));
#344=DIRECTION('ref_axis',(-1.,0.,0.));
#345=DIRECTION('center_axis',(0.,-1.,0.));
#346=DIRECTION('ref_axis',(-1.,0.,0.));
#347=DIRECTION('',(0.,1.,0.));
#348=DIRECTION('center_axis',(0.,1.,0.));
#349=DIRECTION('ref_axis',(0.,0.,1.));
#350=DIRECTION('center_axis',(0.,1.,0.));
#351=DIRECTION('ref_axis',(-1.,0.,0.));
#352=DIRECTION('center_axis',(0.,1.,0.));
#353=DIRECTION('ref_axis',(-1.,0.,0.));
#354=DIRECTION('',(0.70710678118654,0.707106781186555,8.65956056235484E-17));
#355=DIRECTION('center_axis',(0.,-1.,0.));
#356=DIRECTION('ref_axis',(0.,0.,-1.));
#357=DIRECTION('center_axis',(0.,1.,0.));
#358=DIRECTION('ref_axis',(-1.,0.,0.));
#359=DIRECTION('center_axis',(0.,1.,0.));
#360=DIRECTION('ref_axis',(-1.,0.,0.));
#361=DIRECTION('',(0.,1.,0.));
#362=DIRECTION('center_axis',(0.,1.,0.));
#363=DIRECTION('ref_axis',(-1.,0.,0.));
#364=DIRECTION('center_axis',(0.,1.,0.));
#365=DIRECTION('ref_axis',(0.,0.,1.));
#366=DIRECTION('axis',(0.,0.,1.));
#367=DIRECTION('refdir',(1.,0.,0.));
#368=DIRECTION('center_axis',(0.,0.,1.));
#369=DIRECTION('ref_axis',(-1.,0.,0.));
#370=DIRECTION('center_axis',(0.,0.,1.));
#371=DIRECTION('ref_axis',(-1.,0.,0.));
#372=DIRECTION('',(0.,0.,-1.));
#373=DIRECTION('center_axis',(0.,0.,-1.));
#374=DIRECTION('ref_axis',(-1.,0.,0.));
#375=DIRECTION('center_axis',(0.,0.,1.));
#376=DIRECTION('ref_axis',(1.,0.,0.));
#377=DIRECTION('center_axis',(0.,0.,1.));
#378=DIRECTION('ref_axis',(1.,0.,0.));
#379=DIRECTION('axis',(0.,0.,1.));
#380=DIRECTION('refdir',(1.,0.,0.));
#381=DIRECTION('center_axis',(0.,1.,0.));
#382=DIRECTION('ref_axis',(1.,0.,0.));
#383=DIRECTION('center_axis',(0.,1.,0.));
#384=DIRECTION('ref_axis',(1.,0.,0.));
#385=DIRECTION('',(0.,1.,0.));
#386=DIRECTION('center_axis',(0.,-1.,0.));
#387=DIRECTION('ref_axis',(1.,0.,0.));
#388=DIRECTION('center_axis',(0.,1.,0.));
#389=DIRECTION('ref_axis',(1.,0.,0.));
#390=DIRECTION('center_axis',(0.,1.,0.));
#391=DIRECTION('ref_axis',(1.,0.,0.));
#392=DIRECTION('',(0.,-1.,0.));
#393=DIRECTION('center_axis',(0.,-1.,0.));
#394=DIRECTION('ref_axis',(1.,0.,0.));
#395=DIRECTION('center_axis',(0.,1.,0.));
#396=DIRECTION('ref_axis',(0.,0.,1.));
#397=DIRECTION('center_axis',(0.,1.,0.));
#398=DIRECTION('ref_axis',(0.,0.,1.));
#399=DIRECTION('',(0.,0.,1.));
#400=DIRECTION('',(1.,0.,0.));
#401=DIRECTION('',(0.,-1.,0.));
#402=DIRECTION('',(0.660749756857358,0.,0.750606260840491));
#403=DIRECTION('',(-0.180144574480588,0.,0.983640143693418));
#404=DIRECTION('',(0.983640143693418,0.,0.180144574480588));
#405=CARTESIAN_POINT('',(0.,0.,0.));
#406=CARTESIAN_POINT('',(0.,0.,0.));
#407=CARTESIAN_POINT('Origin',(0.,19.9,0.));
#408=CARTESIAN_POINT('',(8.,19.8,-9.79717439317883E-16));
#409=CARTESIAN_POINT('',(-8.,19.8,-9.79717439317883E-16));
#410=CARTESIAN_POINT('Origin',(0.,19.8,0.));
#411=CARTESIAN_POINT('Origin',(0.,19.8,0.));
#412=CARTESIAN_POINT('',(7.8,20.,9.55224503334935E-16));
#413=CARTESIAN_POINT('',(7.9,19.9,9.67470971326409E-16));
#414=CARTESIAN_POINT('Origin',(0.,20.,0.));
#415=CARTESIAN_POINT('Origin',(0.,10.,0.));
#416=CARTESIAN_POINT('',(8.,0.1,9.79717439317883E-16));
#417=CARTESIAN_POINT('',(-8.,0.099999999999999,-9.79717439317883E-16));
#418=CARTESIAN_POINT('Origin',(0.,0.1,0.));
#419=CARTESIAN_POINT('Origin',(0.,0.1,0.));
#420=CARTESIAN_POINT('',(-8.,10.,-9.79717439317883E-16));
#421=CARTESIAN_POINT('Origin',(8.,20.,0.));
#422=CARTESIAN_POINT('Origin',(0.,0.05,0.));
#423=CARTESIAN_POINT('',(7.9,0.,-9.67470971326409E-16));
#424=CARTESIAN_POINT('Origin',(0.,0.,0.));
#425=CARTESIAN_POINT('',(7.95,0.05,9.73594205322146E-16));
#426=CARTESIAN_POINT('Origin',(0.,0.,0.));
#427=CARTESIAN_POINT('',(6.5,0.,7.9602041944578E-16));
#428=CARTESIAN_POINT('Origin',(0.,0.,0.));
#429=CARTESIAN_POINT('Origin',(0.,0.,0.));
#430=CARTESIAN_POINT('',(6.5,5.,7.9602041944578E-16));
#431=CARTESIAN_POINT('',(6.5,0.,-7.9602041944578E-16));
#432=CARTESIAN_POINT('Origin',(0.,5.,0.));
#433=CARTESIAN_POINT('Origin',(-9.20352746203935E-16,5.,-1.42336285208353E-16));
#434=CARTESIAN_POINT('',(0.,0.,0.));
#435=CARTESIAN_POINT('Origin',(0.,0.,0.));
#436=CARTESIAN_POINT('',(5.5,6.73555739531044E-16,5.));
#437=CARTESIAN_POINT('Origin',(0.,0.,5.));
#438=CARTESIAN_POINT('',(5.5,6.73555739531044E-16,0.));
#439=CARTESIAN_POINT('',(5.5,6.73555739531044E-16,0.));
#440=CARTESIAN_POINT('Origin',(0.,0.,0.));
#441=CARTESIAN_POINT('Origin',(-2.24345254752611E-16,0.,0.));
#442=CARTESIAN_POINT('Origin',(-2.24345254752611E-16,0.,5.));
#443=CARTESIAN_POINT('',(0.,0.,0.));
#444=CARTESIAN_POINT('Origin',(0.,0.,0.));
#445=CARTESIAN_POINT('',(-5.5,0.,6.73555739531044E-16));
#446=CARTESIAN_POINT('Origin',(0.,0.,0.));
#447=CARTESIAN_POINT('',(-5.5,5.,6.73555739531044E-16));
#448=CARTESIAN_POINT('',(-5.5,0.,6.73555739531044E-16));
#449=CARTESIAN_POINT('Origin',(0.,5.,0.));
#450=CARTESIAN_POINT('Origin',(0.,0.,0.));
#451=CARTESIAN_POINT('',(-6.5,5.,7.9602041944578E-16));
#452=CARTESIAN_POINT('Origin',(0.,5.,0.));
#453=CARTESIAN_POINT('',(-6.5,0.,7.9602041944578E-16));
#454=CARTESIAN_POINT('',(-6.5,0.,7.9602041944578E-16));
#455=CARTESIAN_POINT('Origin',(0.,0.,0.));
#456=CARTESIAN_POINT('Origin',(6.6335034953815E-17,0.,0.));
#457=CARTESIAN_POINT('Origin',(6.6335034953815E-17,5.,0.));
#458=CARTESIAN_POINT('',(0.,0.,0.));
#459=CARTESIAN_POINT('',(0.,5.,0.));
#460=CARTESIAN_POINT('',(0.,0.,0.));
#461=UNCERTAINTY_MEASURE_WITH_UNIT(LENGTH_MEASURE(0.01),#471,
'DISTANCE_ACCURACY_VALUE',
'Maximum model space distance between geometric entities at asserted c
onnectivities');
#462=UNCERTAINTY_MEASURE_WITH_UNIT(LENGTH_MEASURE(0.01),#471,
'DISTANCE_ACCURACY_VALUE',
'Maximum model space distance between geometric entities at asserted c
onnectivities');
#463=UNCERTAINTY_MEASURE_WITH_UNIT(LENGTH_MEASURE(0.01),#471,
'DISTANCE_ACCURACY_VALUE',
'Maximum model space distance between geometric entities at asserted c
onnectivities');
#464=UNCERTAINTY_MEASURE_WITH_UNIT(LENGTH_MEASURE(0.01),#471,
'DISTANCE_ACCURACY_VALUE',
'Maximum model space distance between geometric entities at asserted c
onnectivities');
#465=UNCERTAINTY_MEASURE_WITH_UNIT(LENGTH_MEASURE(0.01),#471,
'DISTANCE_ACCURACY_VALUE',
'Maximum model space distance between geometric entities at asserted c
onnectivities');
#466=(
GEOMETRIC_REPRESENTATION_CONTEXT(3)
GLOBAL_UNCERTAINTY_ASSIGNED_CONTEXT((#461))
GLOBAL_UNIT_ASSIGNED_CONTEXT((#471,#473,#474))
REPRESENTATION_CONTEXT('','3D')
);
#467=(
GEOMETRIC_REPRESENTATION_CONTEXT(3)
GLOBAL_UNCERTAINTY_ASSIGNED_CONTEXT((#462))
GLOBAL_UNIT_ASSIGNED_CONTEXT((#471,#473,#474))
REPRESENTATION_CONTEXT('','3D')
);
#468=(
GEOMETRIC_REPRESENTATION_CONTEXT(3)
GLOBAL_UNCERTAINTY_ASSIGNED_CONTEXT((#463))
GLOBAL_UNIT_ASSIGNED_CONTEXT((#471,#473,#474))
REPRESENTATION_CONTEXT('','3D')
);
#469=(
GEOMETRIC_REPRESENTATION_CONTEXT(3)
GLOBAL_UNCERTAINTY_ASSIGNED_CONTEXT((#464))
GLOBAL_UNIT_ASSIGNED_CONTEXT((#471,#473,#474))
REPRESENTATION_CONTEXT('','3D')
);
#470=(
GEOMETRIC_REPRESENTATION_CONTEXT(3)
GLOBAL_UNCERTAINTY_ASSIGNED_CONTEXT((#465))
GLOBAL_UNIT_ASSIGNED_CONTEXT((#471,#473,#474))
REPRESENTATION_CONTEXT('','3D')
);
#471=(
LENGTH_UNIT()
NAMED_UNIT(*)
SI_UNIT(.MILLI.,.METRE.)
);
#472=(
LENGTH_UNIT()
NAMED_UNIT(*)
SI_UNIT(.CENTI.,.METRE.)
);
#473=(
NAMED_UNIT(*)
PLANE_ANGLE_UNIT()
SI_UNIT($,.RADIAN.)
);
#474=(
NAMED_UNIT(*)
SI_UNIT($,.STERADIAN.)
SOLID_ANGLE_UNIT()
);
#475=SHAPE_DEFINITION_REPRESENTATION(#479,#486);
#476=SHAPE_DEFINITION_REPRESENTATION(#480,#487);
#477=SHAPE_DEFINITION_REPRESENTATION(#481,#488);
#478=SHAPE_DEFINITION_REPRESENTATION(#482,#489);
#479=PRODUCT_DEFINITION_SHAPE('',$,#491);
#480=PRODUCT_DEFINITION_SHAPE('',$,#492);
#481=PRODUCT_DEFINITION_SHAPE('',$,#493);
#482=PRODUCT_DEFINITION_SHAPE('',$,#494);
#483=PRODUCT_DEFINITION_SHAPE($,$,#20);
#484=PRODUCT_DEFINITION_SHAPE($,$,#21);
#485=PRODUCT_DEFINITION_SHAPE($,$,#22);
#486=SHAPE_REPRESENTATION('',(#293,#325,#326,#327),#466);
#487=SHAPE_REPRESENTATION('',(#294),#467);
#488=SHAPE_REPRESENTATION('',(#310),#468);
#489=SHAPE_REPRESENTATION('',(#316),#469);
#490=PRODUCT_DEFINITION_CONTEXT('part definition',#504,'design');
#491=PRODUCT_DEFINITION('GM16005','GM16005',#495,#490);
#492=PRODUCT_DEFINITION('E0120091','E0120091',#496,#490);
#493=PRODUCT_DEFINITION('E0120089','E0120089',#497,#490);
#494=PRODUCT_DEFINITION('E0120090','E0120090',#498,#490);
#495=PRODUCT_DEFINITION_FORMATION('-',$,#506);
#496=PRODUCT_DEFINITION_FORMATION('-',$,#507);
#497=PRODUCT_DEFINITION_FORMATION('-',$,#508);
#498=PRODUCT_DEFINITION_FORMATION('-',$,#509);
#499=PRODUCT_RELATED_PRODUCT_CATEGORY('GM16005','GM16005',(#506));
#500=PRODUCT_RELATED_PRODUCT_CATEGORY('E0120091','E0120091',(#507));
#501=PRODUCT_RELATED_PRODUCT_CATEGORY('E0120089','E0120089',(#508));
#502=PRODUCT_RELATED_PRODUCT_CATEGORY('E0120090','E0120090',(#509));
#503=APPLICATION_PROTOCOL_DEFINITION('international standard',
'automotive_design',2009,#504);
#504=APPLICATION_CONTEXT(
'Core Data for Automotive Mechanical Design Process');
#505=PRODUCT_CONTEXT('part definition',#504,'mechanical');
#506=PRODUCT('GM16005','GM16005',$,(#505));
#507=PRODUCT('E0120091','E0120091',$,(#505));
#508=PRODUCT('E0120089','E0120089',$,(#505));
#509=PRODUCT('E0120090','E0120090',$,(#505));
ENDSEC;
END-ISO-10303-21;
