ISO-10303-21;
HEADER;
/* Generated by software containing ST-Developer
 * from STEP Tools, Inc. (www.steptools.com) 
 */

FILE_DESCRIPTION(
/* description */ (''),
/* implementation_level */ '2;1');

FILE_NAME(
/* name */ 
'C:\\Workspace\\Documents\\Manufacturing\\33\\E\\Potmagneten\\GM16403\\
GM16403.stp',
/* time_stamp */ '2019-09-24T14:58:16+02:00',
/* author */ ('PV'),
/* organization */ (''),
/* preprocessor_version */ 'ST-DEVELOPER v17.2',
/* originating_system */ 'Autodesk Inventor 2019',
/* authorisation */ '');

FILE_SCHEMA (('AUTOMOTIVE_DESIGN { 1 0 10303 214 3 1 1 }'));
ENDSEC;

DATA;
#10=MECHANICAL_DESIGN_GEOMETRIC_PRESENTATION_REPRESENTATION('',(#29,#30,
#31,#32,#33,#34),#607);
#11=ITEM_DEFINED_TRANSFORMATION($,$,#360,#406);
#12=ITEM_DEFINED_TRANSFORMATION($,$,#382,#407);
#13=ITEM_DEFINED_TRANSFORMATION($,$,#398,#408);
#14=(
REPRESENTATION_RELATIONSHIP($,$,#624,#623)
REPRESENTATION_RELATIONSHIP_WITH_TRANSFORMATION(#11)
SHAPE_REPRESENTATION_RELATIONSHIP()
);
#15=(
REPRESENTATION_RELATIONSHIP($,$,#625,#623)
REPRESENTATION_RELATIONSHIP_WITH_TRANSFORMATION(#12)
SHAPE_REPRESENTATION_RELATIONSHIP()
);
#16=(
REPRESENTATION_RELATIONSHIP($,$,#626,#623)
REPRESENTATION_RELATIONSHIP_WITH_TRANSFORMATION(#13)
SHAPE_REPRESENTATION_RELATIONSHIP()
);
#17=CONTEXT_DEPENDENT_SHAPE_REPRESENTATION(#14,#620);
#18=CONTEXT_DEPENDENT_SHAPE_REPRESENTATION(#15,#621);
#19=CONTEXT_DEPENDENT_SHAPE_REPRESENTATION(#16,#622);
#20=NEXT_ASSEMBLY_USAGE_OCCURRENCE('E0120591/- - OUTER HOUSING:1',
'E0120591/- - OUTER HOUSING:1','E0120591/- - OUTER HOUSING:1',#628,#629,
'E0120591/- - OUTER HOUSING:1');
#21=NEXT_ASSEMBLY_USAGE_OCCURRENCE('E0120592/- - GLUE:1',
'E0120592/- - GLUE:1','E0120592/- - GLUE:1',#628,#630,
'E0120592/- - GLUE:1');
#22=NEXT_ASSEMBLY_USAGE_OCCURRENCE('E0120590/- - MAGNET:1',
'E0120590/- - MAGNET:1','E0120590/- - MAGNET:1',#628,#631,
'E0120590/- - MAGNET:1');
#23=SHAPE_REPRESENTATION_RELATIONSHIP('SRR','None',#624,#26);
#24=SHAPE_REPRESENTATION_RELATIONSHIP('SRR','None',#625,#27);
#25=SHAPE_REPRESENTATION_RELATIONSHIP('SRR','None',#626,#28);
#26=ADVANCED_BREP_SHAPE_REPRESENTATION('',(#35),#604);
#27=ADVANCED_BREP_SHAPE_REPRESENTATION('',(#36),#605);
#28=ADVANCED_BREP_SHAPE_REPRESENTATION('',(#37),#606);
#29=STYLED_ITEM('',(#308),#35);
#30=STYLED_ITEM('',(#309),#36);
#31=STYLED_ITEM('',(#310),#268);
#32=STYLED_ITEM('',(#310),#269);
#33=STYLED_ITEM('',(#310),#270);
#34=STYLED_ITEM('',(#308),#37);
#35=MANIFOLD_SOLID_BREP('Solid2',#271);
#36=MANIFOLD_SOLID_BREP('Solid2',#272);
#37=MANIFOLD_SOLID_BREP('Solid2',#273);
#38=CONICAL_SURFACE('',#378,7.75,0.785398163397449);
#39=TOROIDAL_SURFACE('',#370,6.9,0.3);
#40=TOROIDAL_SURFACE('',#383,6.9,0.3);
#41=LINE('',#528,#47);
#42=LINE('',#551,#48);
#43=LINE('',#553,#49);
#44=LINE('',#574,#50);
#45=LINE('',#581,#51);
#46=LINE('',#593,#52);
#47=VECTOR('',#425,7.2);
#48=VECTOR('',#454,7.75);
#49=VECTOR('',#457,8.);
#50=VECTOR('',#482,7.2);
#51=VECTOR('',#491,6.9);
#52=VECTOR('',#506,6.9);
#53=CYLINDRICAL_SURFACE('',#366,7.2);
#54=CYLINDRICAL_SURFACE('',#381,8.);
#55=CYLINDRICAL_SURFACE('',#391,7.2);
#56=CYLINDRICAL_SURFACE('',#397,6.9);
#57=CYLINDRICAL_SURFACE('',#402,6.9);
#58=FACE_BOUND('',#75,.T.);
#59=FACE_BOUND('',#85,.T.);
#60=FACE_OUTER_BOUND('',#74,.T.);
#61=FACE_OUTER_BOUND('',#76,.T.);
#62=FACE_OUTER_BOUND('',#77,.T.);
#63=FACE_OUTER_BOUND('',#78,.T.);
#64=FACE_OUTER_BOUND('',#79,.T.);
#65=FACE_OUTER_BOUND('',#80,.T.);
#66=FACE_OUTER_BOUND('',#81,.T.);
#67=FACE_OUTER_BOUND('',#82,.T.);
#68=FACE_OUTER_BOUND('',#83,.T.);
#69=FACE_OUTER_BOUND('',#84,.T.);
#70=FACE_OUTER_BOUND('',#86,.T.);
#71=FACE_OUTER_BOUND('',#87,.T.);
#72=FACE_OUTER_BOUND('',#88,.T.);
#73=FACE_OUTER_BOUND('',#89,.T.);
#74=EDGE_LOOP('',(#181,#182));
#75=EDGE_LOOP('',(#183,#184));
#76=EDGE_LOOP('',(#185,#186,#187,#188,#189,#190,#191));
#77=EDGE_LOOP('',(#192,#193,#194,#195,#196,#197,#198));
#78=EDGE_LOOP('',(#199,#200));
#79=EDGE_LOOP('',(#201,#202));
#80=EDGE_LOOP('',(#203,#204,#205,#206,#207,#208));
#81=EDGE_LOOP('',(#209,#210,#211,#212,#213,#214));
#82=EDGE_LOOP('',(#215,#216,#217,#218,#219,#220,#221,#222));
#83=EDGE_LOOP('',(#223,#224,#225,#226,#227,#228,#229));
#84=EDGE_LOOP('',(#230,#231));
#85=EDGE_LOOP('',(#232,#233));
#86=EDGE_LOOP('',(#234,#235,#236,#237,#238,#239,#240));
#87=EDGE_LOOP('',(#241,#242));
#88=EDGE_LOOP('',(#243,#244,#245,#246,#247,#248));
#89=EDGE_LOOP('',(#249,#250));
#90=CIRCLE('',#362,8.);
#91=CIRCLE('',#363,8.);
#92=CIRCLE('',#364,7.2);
#93=CIRCLE('',#365,7.2);
#94=CIRCLE('',#367,7.2);
#95=CIRCLE('',#368,7.2);
#96=CIRCLE('',#369,7.2);
#97=CIRCLE('',#371,0.3);
#98=CIRCLE('',#372,6.9);
#99=CIRCLE('',#373,6.9);
#100=CIRCLE('',#376,7.5);
#101=CIRCLE('',#377,7.5);
#102=CIRCLE('',#379,8.);
#103=CIRCLE('',#380,8.);
#104=CIRCLE('',#384,7.2);
#105=CIRCLE('',#385,7.2);
#106=CIRCLE('',#386,0.3);
#107=CIRCLE('',#387,6.9);
#108=CIRCLE('',#388,6.9);
#109=CIRCLE('',#389,6.9);
#110=CIRCLE('',#390,7.2);
#111=CIRCLE('',#392,7.2);
#112=CIRCLE('',#393,7.2);
#113=CIRCLE('',#395,6.9);
#114=CIRCLE('',#396,6.9);
#115=CIRCLE('',#400,6.9);
#116=CIRCLE('',#401,6.9);
#117=CIRCLE('',#403,6.9);
#118=CIRCLE('',#404,6.9);
#119=VERTEX_POINT('',#518);
#120=VERTEX_POINT('',#519);
#121=VERTEX_POINT('',#522);
#122=VERTEX_POINT('',#523);
#123=VERTEX_POINT('',#527);
#124=VERTEX_POINT('',#529);
#125=VERTEX_POINT('',#531);
#126=VERTEX_POINT('',#535);
#127=VERTEX_POINT('',#537);
#128=VERTEX_POINT('',#542);
#129=VERTEX_POINT('',#543);
#130=VERTEX_POINT('',#547);
#131=VERTEX_POINT('',#548);
#132=VERTEX_POINT('',#556);
#133=VERTEX_POINT('',#557);
#134=VERTEX_POINT('',#559);
#135=VERTEX_POINT('',#561);
#136=VERTEX_POINT('',#563);
#137=VERTEX_POINT('',#565);
#138=VERTEX_POINT('',#570);
#139=VERTEX_POINT('',#571);
#140=VERTEX_POINT('',#576);
#141=VERTEX_POINT('',#577);
#142=VERTEX_POINT('',#584);
#143=VERTEX_POINT('',#585);
#144=VERTEX_POINT('',#589);
#145=VERTEX_POINT('',#590);
#146=EDGE_CURVE('',#119,#120,#90,.T.);
#147=EDGE_CURVE('',#120,#119,#91,.T.);
#148=EDGE_CURVE('',#121,#122,#92,.T.);
#149=EDGE_CURVE('',#122,#121,#93,.T.);
#150=EDGE_CURVE('',#122,#123,#41,.T.);
#151=EDGE_CURVE('',#124,#123,#94,.T.);
#152=EDGE_CURVE('',#125,#124,#95,.T.);
#153=EDGE_CURVE('',#123,#125,#96,.T.);
#154=EDGE_CURVE('',#125,#126,#97,.T.);
#155=EDGE_CURVE('',#127,#126,#98,.T.);
#156=EDGE_CURVE('',#126,#127,#99,.T.);
#157=EDGE_CURVE('',#128,#129,#100,.T.);
#158=EDGE_CURVE('',#129,#128,#101,.T.);
#159=EDGE_CURVE('',#130,#131,#102,.T.);
#160=EDGE_CURVE('',#131,#130,#103,.T.);
#161=EDGE_CURVE('',#131,#129,#42,.T.);
#162=EDGE_CURVE('',#120,#131,#43,.T.);
#163=EDGE_CURVE('',#132,#133,#104,.T.);
#164=EDGE_CURVE('',#134,#132,#105,.T.);
#165=EDGE_CURVE('',#134,#135,#106,.T.);
#166=EDGE_CURVE('',#135,#136,#107,.T.);
#167=EDGE_CURVE('',#136,#137,#108,.T.);
#168=EDGE_CURVE('',#137,#135,#109,.T.);
#169=EDGE_CURVE('',#133,#134,#110,.T.);
#170=EDGE_CURVE('',#138,#139,#111,.T.);
#171=EDGE_CURVE('',#139,#138,#112,.T.);
#172=EDGE_CURVE('',#139,#133,#44,.T.);
#173=EDGE_CURVE('',#140,#141,#113,.T.);
#174=EDGE_CURVE('',#141,#140,#114,.T.);
#175=EDGE_CURVE('',#141,#137,#45,.T.);
#176=EDGE_CURVE('',#142,#143,#115,.T.);
#177=EDGE_CURVE('',#143,#142,#116,.T.);
#178=EDGE_CURVE('',#144,#145,#117,.T.);
#179=EDGE_CURVE('',#145,#144,#118,.T.);
#180=EDGE_CURVE('',#145,#143,#46,.T.);
#181=ORIENTED_EDGE('',*,*,#146,.T.);
#182=ORIENTED_EDGE('',*,*,#147,.T.);
#183=ORIENTED_EDGE('',*,*,#148,.F.);
#184=ORIENTED_EDGE('',*,*,#149,.F.);
#185=ORIENTED_EDGE('',*,*,#148,.T.);
#186=ORIENTED_EDGE('',*,*,#150,.T.);
#187=ORIENTED_EDGE('',*,*,#151,.F.);
#188=ORIENTED_EDGE('',*,*,#152,.F.);
#189=ORIENTED_EDGE('',*,*,#153,.F.);
#190=ORIENTED_EDGE('',*,*,#150,.F.);
#191=ORIENTED_EDGE('',*,*,#149,.T.);
#192=ORIENTED_EDGE('',*,*,#151,.T.);
#193=ORIENTED_EDGE('',*,*,#153,.T.);
#194=ORIENTED_EDGE('',*,*,#154,.T.);
#195=ORIENTED_EDGE('',*,*,#155,.F.);
#196=ORIENTED_EDGE('',*,*,#156,.F.);
#197=ORIENTED_EDGE('',*,*,#154,.F.);
#198=ORIENTED_EDGE('',*,*,#152,.T.);
#199=ORIENTED_EDGE('',*,*,#155,.T.);
#200=ORIENTED_EDGE('',*,*,#156,.T.);
#201=ORIENTED_EDGE('',*,*,#157,.F.);
#202=ORIENTED_EDGE('',*,*,#158,.F.);
#203=ORIENTED_EDGE('',*,*,#159,.F.);
#204=ORIENTED_EDGE('',*,*,#160,.F.);
#205=ORIENTED_EDGE('',*,*,#161,.T.);
#206=ORIENTED_EDGE('',*,*,#158,.T.);
#207=ORIENTED_EDGE('',*,*,#157,.T.);
#208=ORIENTED_EDGE('',*,*,#161,.F.);
#209=ORIENTED_EDGE('',*,*,#146,.F.);
#210=ORIENTED_EDGE('',*,*,#147,.F.);
#211=ORIENTED_EDGE('',*,*,#162,.T.);
#212=ORIENTED_EDGE('',*,*,#160,.T.);
#213=ORIENTED_EDGE('',*,*,#159,.T.);
#214=ORIENTED_EDGE('',*,*,#162,.F.);
#215=ORIENTED_EDGE('',*,*,#163,.F.);
#216=ORIENTED_EDGE('',*,*,#164,.F.);
#217=ORIENTED_EDGE('',*,*,#165,.T.);
#218=ORIENTED_EDGE('',*,*,#166,.T.);
#219=ORIENTED_EDGE('',*,*,#167,.T.);
#220=ORIENTED_EDGE('',*,*,#168,.T.);
#221=ORIENTED_EDGE('',*,*,#165,.F.);
#222=ORIENTED_EDGE('',*,*,#169,.F.);
#223=ORIENTED_EDGE('',*,*,#170,.F.);
#224=ORIENTED_EDGE('',*,*,#171,.F.);
#225=ORIENTED_EDGE('',*,*,#172,.T.);
#226=ORIENTED_EDGE('',*,*,#169,.T.);
#227=ORIENTED_EDGE('',*,*,#164,.T.);
#228=ORIENTED_EDGE('',*,*,#163,.T.);
#229=ORIENTED_EDGE('',*,*,#172,.F.);
#230=ORIENTED_EDGE('',*,*,#170,.T.);
#231=ORIENTED_EDGE('',*,*,#171,.T.);
#232=ORIENTED_EDGE('',*,*,#173,.F.);
#233=ORIENTED_EDGE('',*,*,#174,.F.);
#234=ORIENTED_EDGE('',*,*,#173,.T.);
#235=ORIENTED_EDGE('',*,*,#175,.T.);
#236=ORIENTED_EDGE('',*,*,#167,.F.);
#237=ORIENTED_EDGE('',*,*,#166,.F.);
#238=ORIENTED_EDGE('',*,*,#168,.F.);
#239=ORIENTED_EDGE('',*,*,#175,.F.);
#240=ORIENTED_EDGE('',*,*,#174,.T.);
#241=ORIENTED_EDGE('',*,*,#176,.F.);
#242=ORIENTED_EDGE('',*,*,#177,.F.);
#243=ORIENTED_EDGE('',*,*,#178,.F.);
#244=ORIENTED_EDGE('',*,*,#179,.F.);
#245=ORIENTED_EDGE('',*,*,#180,.T.);
#246=ORIENTED_EDGE('',*,*,#177,.T.);
#247=ORIENTED_EDGE('',*,*,#176,.T.);
#248=ORIENTED_EDGE('',*,*,#180,.F.);
#249=ORIENTED_EDGE('',*,*,#178,.T.);
#250=ORIENTED_EDGE('',*,*,#179,.T.);
#251=PLANE('',#361);
#252=PLANE('',#374);
#253=PLANE('',#375);
#254=PLANE('',#394);
#255=PLANE('',#399);
#256=PLANE('',#405);
#257=ADVANCED_FACE('',(#60,#58),#251,.T.);
#258=ADVANCED_FACE('',(#61),#53,.F.);
#259=ADVANCED_FACE('',(#62),#39,.F.);
#260=ADVANCED_FACE('',(#63),#252,.T.);
#261=ADVANCED_FACE('',(#64),#253,.T.);
#262=ADVANCED_FACE('',(#65),#38,.T.);
#263=ADVANCED_FACE('',(#66),#54,.T.);
#264=ADVANCED_FACE('',(#67),#40,.T.);
#265=ADVANCED_FACE('',(#68),#55,.T.);
#266=ADVANCED_FACE('',(#69,#59),#254,.T.);
#267=ADVANCED_FACE('',(#70),#56,.F.);
#268=ADVANCED_FACE('',(#71),#255,.T.);
#269=ADVANCED_FACE('',(#72),#57,.T.);
#270=ADVANCED_FACE('',(#73),#256,.T.);
#271=CLOSED_SHELL('',(#257,#258,#259,#260,#261,#262,#263));
#272=CLOSED_SHELL('',(#264,#265,#266,#267));
#273=CLOSED_SHELL('',(#268,#269,#270));
#274=DERIVED_UNIT_ELEMENT(#280,1.);
#275=DERIVED_UNIT_ELEMENT(#609,3.);
#276=DERIVED_UNIT_ELEMENT(#280,1.);
#277=DERIVED_UNIT_ELEMENT(#609,3.);
#278=DERIVED_UNIT_ELEMENT(#280,1.);
#279=DERIVED_UNIT_ELEMENT(#609,3.);
#280=(
MASS_UNIT()
NAMED_UNIT(*)
SI_UNIT($,.GRAM.)
);
#281=DERIVED_UNIT((#274,#275));
#282=DERIVED_UNIT((#276,#277));
#283=DERIVED_UNIT((#278,#279));
#284=MEASURE_REPRESENTATION_ITEM('density measure',
POSITIVE_RATIO_MEASURE(7.85),#281);
#285=MEASURE_REPRESENTATION_ITEM('density measure',
POSITIVE_RATIO_MEASURE(1.),#282);
#286=MEASURE_REPRESENTATION_ITEM('density measure',
POSITIVE_RATIO_MEASURE(7.85),#283);
#287=PROPERTY_DEFINITION_REPRESENTATION(#302,#293);
#288=PROPERTY_DEFINITION_REPRESENTATION(#303,#294);
#289=PROPERTY_DEFINITION_REPRESENTATION(#304,#295);
#290=PROPERTY_DEFINITION_REPRESENTATION(#305,#296);
#291=PROPERTY_DEFINITION_REPRESENTATION(#306,#297);
#292=PROPERTY_DEFINITION_REPRESENTATION(#307,#298);
#293=REPRESENTATION('material name',(#299),#604);
#294=REPRESENTATION('density',(#284),#604);
#295=REPRESENTATION('material name',(#300),#605);
#296=REPRESENTATION('density',(#285),#605);
#297=REPRESENTATION('material name',(#301),#606);
#298=REPRESENTATION('density',(#286),#606);
#299=DESCRIPTIVE_REPRESENTATION_ITEM('Steel, Carbon','Steel, Carbon');
#300=DESCRIPTIVE_REPRESENTATION_ITEM('PE','PE');
#301=DESCRIPTIVE_REPRESENTATION_ITEM('Steel, Carbon','Steel, Carbon');
#302=PROPERTY_DEFINITION('material property','material name',#629);
#303=PROPERTY_DEFINITION('material property','density of part',#629);
#304=PROPERTY_DEFINITION('material property','material name',#630);
#305=PROPERTY_DEFINITION('material property','density of part',#630);
#306=PROPERTY_DEFINITION('material property','material name',#631);
#307=PROPERTY_DEFINITION('material property','density of part',#631);
#308=PRESENTATION_STYLE_ASSIGNMENT((#311));
#309=PRESENTATION_STYLE_ASSIGNMENT((#312));
#310=PRESENTATION_STYLE_ASSIGNMENT((#313));
#311=SURFACE_STYLE_USAGE(.BOTH.,#320);
#312=SURFACE_STYLE_USAGE(.BOTH.,#321);
#313=SURFACE_STYLE_USAGE(.BOTH.,#322);
#314=SURFACE_STYLE_RENDERING_WITH_PROPERTIES($,#332,(#317));
#315=SURFACE_STYLE_RENDERING_WITH_PROPERTIES($,#333,(#318));
#316=SURFACE_STYLE_RENDERING_WITH_PROPERTIES($,#334,(#319));
#317=SURFACE_STYLE_TRANSPARENT(0.);
#318=SURFACE_STYLE_TRANSPARENT(0.);
#319=SURFACE_STYLE_TRANSPARENT(0.);
#320=SURFACE_SIDE_STYLE('',(#323,#314));
#321=SURFACE_SIDE_STYLE('',(#324,#315));
#322=SURFACE_SIDE_STYLE('',(#325,#316));
#323=SURFACE_STYLE_FILL_AREA(#326);
#324=SURFACE_STYLE_FILL_AREA(#327);
#325=SURFACE_STYLE_FILL_AREA(#328);
#326=FILL_AREA_STYLE('',(#329));
#327=FILL_AREA_STYLE('',(#330));
#328=FILL_AREA_STYLE('',(#331));
#329=FILL_AREA_STYLE_COLOUR('',#332);
#330=FILL_AREA_STYLE_COLOUR('',#333);
#331=FILL_AREA_STYLE_COLOUR('',#334);
#332=COLOUR_RGB('',0.745098039215686,0.737254901960784,0.729411764705882);
#333=COLOUR_RGB('',0.,0.,0.);
#334=COLOUR_RGB('',0.501960784313725,1.,0.501960784313725);
#335=DATE_TIME_ROLE('creation_date');
#336=DATE_TIME_ROLE('creation_date');
#337=DATE_TIME_ROLE('creation_date');
#338=DATE_TIME_ROLE('creation_date');
#339=APPLIED_DATE_AND_TIME_ASSIGNMENT(#343,#335,(#628));
#340=APPLIED_DATE_AND_TIME_ASSIGNMENT(#344,#336,(#629));
#341=APPLIED_DATE_AND_TIME_ASSIGNMENT(#345,#337,(#630));
#342=APPLIED_DATE_AND_TIME_ASSIGNMENT(#346,#338,(#631));
#343=DATE_AND_TIME(#347,#351);
#344=DATE_AND_TIME(#348,#352);
#345=DATE_AND_TIME(#349,#353);
#346=DATE_AND_TIME(#350,#354);
#347=CALENDAR_DATE(2019,8,8);
#348=CALENDAR_DATE(2019,8,8);
#349=CALENDAR_DATE(2019,8,8);
#350=CALENDAR_DATE(2019,8,8);
#351=LOCAL_TIME(22,0,0.,#355);
#352=LOCAL_TIME(22,0,0.,#356);
#353=LOCAL_TIME(22,0,0.,#357);
#354=LOCAL_TIME(22,0,0.,#358);
#355=COORDINATED_UNIVERSAL_TIME_OFFSET(0,0,.BEHIND.);
#356=COORDINATED_UNIVERSAL_TIME_OFFSET(0,0,.BEHIND.);
#357=COORDINATED_UNIVERSAL_TIME_OFFSET(0,0,.BEHIND.);
#358=COORDINATED_UNIVERSAL_TIME_OFFSET(0,0,.BEHIND.);
#359=AXIS2_PLACEMENT_3D('placement',#515,#409,#410);
#360=AXIS2_PLACEMENT_3D('placement',#516,#411,#412);
#361=AXIS2_PLACEMENT_3D('',#517,#413,#414);
#362=AXIS2_PLACEMENT_3D('',#520,#415,#416);
#363=AXIS2_PLACEMENT_3D('',#521,#417,#418);
#364=AXIS2_PLACEMENT_3D('',#524,#419,#420);
#365=AXIS2_PLACEMENT_3D('',#525,#421,#422);
#366=AXIS2_PLACEMENT_3D('',#526,#423,#424);
#367=AXIS2_PLACEMENT_3D('',#530,#426,#427);
#368=AXIS2_PLACEMENT_3D('',#532,#428,#429);
#369=AXIS2_PLACEMENT_3D('',#533,#430,#431);
#370=AXIS2_PLACEMENT_3D('',#534,#432,#433);
#371=AXIS2_PLACEMENT_3D('',#536,#434,#435);
#372=AXIS2_PLACEMENT_3D('',#538,#436,#437);
#373=AXIS2_PLACEMENT_3D('',#539,#438,#439);
#374=AXIS2_PLACEMENT_3D('',#540,#440,#441);
#375=AXIS2_PLACEMENT_3D('',#541,#442,#443);
#376=AXIS2_PLACEMENT_3D('',#544,#444,#445);
#377=AXIS2_PLACEMENT_3D('',#545,#446,#447);
#378=AXIS2_PLACEMENT_3D('',#546,#448,#449);
#379=AXIS2_PLACEMENT_3D('',#549,#450,#451);
#380=AXIS2_PLACEMENT_3D('',#550,#452,#453);
#381=AXIS2_PLACEMENT_3D('',#552,#455,#456);
#382=AXIS2_PLACEMENT_3D('placement',#554,#458,#459);
#383=AXIS2_PLACEMENT_3D('',#555,#460,#461);
#384=AXIS2_PLACEMENT_3D('',#558,#462,#463);
#385=AXIS2_PLACEMENT_3D('',#560,#464,#465);
#386=AXIS2_PLACEMENT_3D('',#562,#466,#467);
#387=AXIS2_PLACEMENT_3D('',#564,#468,#469);
#388=AXIS2_PLACEMENT_3D('',#566,#470,#471);
#389=AXIS2_PLACEMENT_3D('',#567,#472,#473);
#390=AXIS2_PLACEMENT_3D('',#568,#474,#475);
#391=AXIS2_PLACEMENT_3D('',#569,#476,#477);
#392=AXIS2_PLACEMENT_3D('',#572,#478,#479);
#393=AXIS2_PLACEMENT_3D('',#573,#480,#481);
#394=AXIS2_PLACEMENT_3D('',#575,#483,#484);
#395=AXIS2_PLACEMENT_3D('',#578,#485,#486);
#396=AXIS2_PLACEMENT_3D('',#579,#487,#488);
#397=AXIS2_PLACEMENT_3D('',#580,#489,#490);
#398=AXIS2_PLACEMENT_3D('placement',#582,#492,#493);
#399=AXIS2_PLACEMENT_3D('',#583,#494,#495);
#400=AXIS2_PLACEMENT_3D('',#586,#496,#497);
#401=AXIS2_PLACEMENT_3D('',#587,#498,#499);
#402=AXIS2_PLACEMENT_3D('',#588,#500,#501);
#403=AXIS2_PLACEMENT_3D('',#591,#502,#503);
#404=AXIS2_PLACEMENT_3D('',#592,#504,#505);
#405=AXIS2_PLACEMENT_3D('',#594,#507,#508);
#406=AXIS2_PLACEMENT_3D('',#595,#509,#510);
#407=AXIS2_PLACEMENT_3D('',#596,#511,#512);
#408=AXIS2_PLACEMENT_3D('',#597,#513,#514);
#409=DIRECTION('axis',(0.,0.,1.));
#410=DIRECTION('refdir',(1.,0.,0.));
#411=DIRECTION('axis',(0.,0.,1.));
#412=DIRECTION('refdir',(1.,0.,0.));
#413=DIRECTION('center_axis',(0.,1.,0.));
#414=DIRECTION('ref_axis',(0.,0.,1.));
#415=DIRECTION('center_axis',(0.,1.,0.));
#416=DIRECTION('ref_axis',(1.,0.,0.));
#417=DIRECTION('center_axis',(0.,1.,0.));
#418=DIRECTION('ref_axis',(1.,0.,0.));
#419=DIRECTION('center_axis',(0.,1.,0.));
#420=DIRECTION('ref_axis',(1.,0.,0.));
#421=DIRECTION('center_axis',(0.,1.,0.));
#422=DIRECTION('ref_axis',(1.,0.,0.));
#423=DIRECTION('center_axis',(0.,1.,0.));
#424=DIRECTION('ref_axis',(-1.,0.,0.));
#425=DIRECTION('',(0.,-1.,0.));
#426=DIRECTION('center_axis',(0.,1.,0.));
#427=DIRECTION('ref_axis',(1.,0.,0.));
#428=DIRECTION('center_axis',(0.,1.,0.));
#429=DIRECTION('ref_axis',(1.,0.,0.));
#430=DIRECTION('center_axis',(0.,1.,0.));
#431=DIRECTION('ref_axis',(1.,0.,0.));
#432=DIRECTION('center_axis',(0.,1.,0.));
#433=DIRECTION('ref_axis',(0.,0.,1.));
#434=DIRECTION('center_axis',(-1.,0.,1.22464679914735E-16));
#435=DIRECTION('ref_axis',(-1.22464679914735E-16,0.,-1.));
#436=DIRECTION('center_axis',(0.,1.,0.));
#437=DIRECTION('ref_axis',(1.,0.,0.));
#438=DIRECTION('center_axis',(0.,1.,0.));
#439=DIRECTION('ref_axis',(1.,0.,0.));
#440=DIRECTION('center_axis',(0.,1.,0.));
#441=DIRECTION('ref_axis',(0.,0.,1.));
#442=DIRECTION('center_axis',(0.,-1.,0.));
#443=DIRECTION('ref_axis',(0.,0.,-1.));
#444=DIRECTION('center_axis',(0.,1.,0.));
#445=DIRECTION('ref_axis',(1.,0.,0.));
#446=DIRECTION('center_axis',(0.,1.,0.));
#447=DIRECTION('ref_axis',(1.,0.,0.));
#448=DIRECTION('center_axis',(0.,1.,0.));
#449=DIRECTION('ref_axis',(-1.,0.,0.));
#450=DIRECTION('center_axis',(0.,1.,0.));
#451=DIRECTION('ref_axis',(1.,0.,0.));
#452=DIRECTION('center_axis',(0.,1.,0.));
#453=DIRECTION('ref_axis',(1.,0.,0.));
#454=DIRECTION('',(-0.707106781186548,-0.707106781186547,8.65956056235493E-17));
#455=DIRECTION('center_axis',(0.,1.,0.));
#456=DIRECTION('ref_axis',(-1.,0.,0.));
#457=DIRECTION('',(0.,-1.,0.));
#458=DIRECTION('axis',(0.,0.,1.));
#459=DIRECTION('refdir',(1.,0.,0.));
#460=DIRECTION('center_axis',(0.,1.,0.));
#461=DIRECTION('ref_axis',(0.,0.,1.));
#462=DIRECTION('center_axis',(0.,1.,0.));
#463=DIRECTION('ref_axis',(1.,0.,0.));
#464=DIRECTION('center_axis',(0.,1.,0.));
#465=DIRECTION('ref_axis',(1.,0.,0.));
#466=DIRECTION('center_axis',(-1.,0.,1.22464679914735E-16));
#467=DIRECTION('ref_axis',(-1.22464679914735E-16,0.,-1.));
#468=DIRECTION('center_axis',(0.,1.,0.));
#469=DIRECTION('ref_axis',(1.,0.,0.));
#470=DIRECTION('center_axis',(0.,1.,0.));
#471=DIRECTION('ref_axis',(1.,0.,0.));
#472=DIRECTION('center_axis',(0.,1.,0.));
#473=DIRECTION('ref_axis',(1.,0.,0.));
#474=DIRECTION('center_axis',(0.,1.,0.));
#475=DIRECTION('ref_axis',(1.,0.,0.));
#476=DIRECTION('center_axis',(0.,1.,0.));
#477=DIRECTION('ref_axis',(-1.,0.,0.));
#478=DIRECTION('center_axis',(0.,1.,0.));
#479=DIRECTION('ref_axis',(1.,0.,0.));
#480=DIRECTION('center_axis',(0.,1.,0.));
#481=DIRECTION('ref_axis',(1.,0.,0.));
#482=DIRECTION('',(0.,-1.,0.));
#483=DIRECTION('center_axis',(0.,1.,0.));
#484=DIRECTION('ref_axis',(0.,0.,1.));
#485=DIRECTION('center_axis',(0.,1.,0.));
#486=DIRECTION('ref_axis',(1.,0.,0.));
#487=DIRECTION('center_axis',(0.,1.,0.));
#488=DIRECTION('ref_axis',(1.,0.,0.));
#489=DIRECTION('center_axis',(0.,1.,0.));
#490=DIRECTION('ref_axis',(-1.,0.,0.));
#491=DIRECTION('',(0.,-1.,0.));
#492=DIRECTION('axis',(0.,0.,1.));
#493=DIRECTION('refdir',(1.,0.,0.));
#494=DIRECTION('center_axis',(1.,0.,0.));
#495=DIRECTION('ref_axis',(0.,0.,-1.));
#496=DIRECTION('center_axis',(-1.,0.,0.));
#497=DIRECTION('ref_axis',(0.,0.,1.));
#498=DIRECTION('center_axis',(-1.,0.,0.));
#499=DIRECTION('ref_axis',(0.,0.,1.));
#500=DIRECTION('center_axis',(-1.,0.,0.));
#501=DIRECTION('ref_axis',(0.,0.,1.));
#502=DIRECTION('center_axis',(-1.,0.,0.));
#503=DIRECTION('ref_axis',(0.,0.,1.));
#504=DIRECTION('center_axis',(-1.,0.,0.));
#505=DIRECTION('ref_axis',(0.,0.,1.));
#506=DIRECTION('',(1.,0.,0.));
#507=DIRECTION('center_axis',(-1.,0.,0.));
#508=DIRECTION('ref_axis',(0.,0.,1.));
#509=DIRECTION('',(0.,0.,1.));
#510=DIRECTION('',(1.,0.,0.));
#511=DIRECTION('',(-0.20777609845556,0.,0.978176411957774));
#512=DIRECTION('',(0.978176411957774,0.,0.20777609845556));
#513=DIRECTION('',(-0.072890986815005,0.,0.997339913991782));
#514=DIRECTION('',(0.,-1.,0.));
#515=CARTESIAN_POINT('',(0.,0.,0.));
#516=CARTESIAN_POINT('',(0.,0.,0.));
#517=CARTESIAN_POINT('Origin',(-7.2,4.5,0.));
#518=CARTESIAN_POINT('',(-8.,4.5,0.));
#519=CARTESIAN_POINT('',(8.,4.5,-9.79717439317883E-16));
#520=CARTESIAN_POINT('Origin',(0.,4.5,0.));
#521=CARTESIAN_POINT('Origin',(0.,4.5,0.));
#522=CARTESIAN_POINT('',(-7.2,4.5,0.));
#523=CARTESIAN_POINT('',(7.2,4.5,-8.81745695386094E-16));
#524=CARTESIAN_POINT('Origin',(0.,4.5,0.));
#525=CARTESIAN_POINT('Origin',(0.,4.5,0.));
#526=CARTESIAN_POINT('Origin',(0.,2.8,0.));
#527=CARTESIAN_POINT('',(7.2,1.1,-8.81745695386094E-16));
#528=CARTESIAN_POINT('',(7.2,2.8,-8.81745695386094E-16));
#529=CARTESIAN_POINT('',(-7.2,1.1,0.));
#530=CARTESIAN_POINT('Origin',(0.,1.1,0.));
#531=CARTESIAN_POINT('',(-8.81745695386094E-16,1.1,-7.2));
#532=CARTESIAN_POINT('Origin',(0.,1.1,0.));
#533=CARTESIAN_POINT('Origin',(0.,1.1,0.));
#534=CARTESIAN_POINT('Origin',(0.,1.1,0.));
#535=CARTESIAN_POINT('',(-8.45006291411674E-16,0.799999999999999,-6.9));
#536=CARTESIAN_POINT('Origin',(-8.45006291411674E-16,1.1,-6.9));
#537=CARTESIAN_POINT('',(-6.9,0.799999999999999,0.));
#538=CARTESIAN_POINT('Origin',(0.,0.799999999999999,0.));
#539=CARTESIAN_POINT('Origin',(0.,0.799999999999999,0.));
#540=CARTESIAN_POINT('Origin',(-1.23259516440839E-33,0.800000000000001,
0.));
#541=CARTESIAN_POINT('Origin',(-7.5,-9.18485099360515E-16,0.));
#542=CARTESIAN_POINT('',(-7.5,-9.18485099360515E-16,0.));
#543=CARTESIAN_POINT('',(7.5,-1.28369537222284E-15,-9.18485099360515E-16));
#544=CARTESIAN_POINT('Origin',(0.,-1.11022302462516E-15,0.));
#545=CARTESIAN_POINT('Origin',(0.,-1.11022302462516E-15,0.));
#546=CARTESIAN_POINT('Origin',(0.,0.249999999999999,0.));
#547=CARTESIAN_POINT('',(-8.,0.499999999999999,0.));
#548=CARTESIAN_POINT('',(8.,0.499999999999999,-9.79717439317883E-16));
#549=CARTESIAN_POINT('Origin',(0.,0.499999999999999,0.));
#550=CARTESIAN_POINT('Origin',(0.,0.499999999999999,0.));
#551=CARTESIAN_POINT('',(7.75,0.249999999999999,-9.49101269339199E-16));
#552=CARTESIAN_POINT('Origin',(0.,2.5,0.));
#553=CARTESIAN_POINT('',(8.,2.5,-9.79717439317883E-16));
#554=CARTESIAN_POINT('',(0.,0.,0.));
#555=CARTESIAN_POINT('Origin',(0.,0.299999999999999,0.));
#556=CARTESIAN_POINT('',(-7.2,0.299999999999999,0.));
#557=CARTESIAN_POINT('',(7.2,0.299999999999999,-8.81745695386094E-16));
#558=CARTESIAN_POINT('Origin',(0.,0.299999999999999,0.));
#559=CARTESIAN_POINT('',(-8.81745695386094E-16,0.299999999999999,-7.2));
#560=CARTESIAN_POINT('Origin',(0.,0.299999999999999,0.));
#561=CARTESIAN_POINT('',(-8.45006291411674E-16,-8.32667268468867E-16,-6.9));
#562=CARTESIAN_POINT('Origin',(-8.45006291411674E-16,0.299999999999999,
-6.9));
#563=CARTESIAN_POINT('',(-6.9,-8.45006291411674E-16,0.));
#564=CARTESIAN_POINT('Origin',(0.,-8.32667268468867E-16,0.));
#565=CARTESIAN_POINT('',(6.9,-1.11022302462516E-15,-8.45006291411674E-16));
#566=CARTESIAN_POINT('Origin',(0.,-8.32667268468867E-16,0.));
#567=CARTESIAN_POINT('Origin',(0.,-8.32667268468867E-16,0.));
#568=CARTESIAN_POINT('Origin',(0.,0.299999999999999,0.));
#569=CARTESIAN_POINT('Origin',(0.,2.,0.));
#570=CARTESIAN_POINT('',(-7.2,3.7,0.));
#571=CARTESIAN_POINT('',(7.2,3.7,-8.81745695386094E-16));
#572=CARTESIAN_POINT('Origin',(0.,3.7,0.));
#573=CARTESIAN_POINT('Origin',(0.,3.7,0.));
#574=CARTESIAN_POINT('',(7.2,2.,-8.81745695386094E-16));
#575=CARTESIAN_POINT('Origin',(-6.9,3.7,0.));
#576=CARTESIAN_POINT('',(-6.9,3.7,0.));
#577=CARTESIAN_POINT('',(6.9,3.7,-8.45006291411674E-16));
#578=CARTESIAN_POINT('Origin',(0.,3.7,0.));
#579=CARTESIAN_POINT('Origin',(0.,3.7,0.));
#580=CARTESIAN_POINT('Origin',(0.,1.85,0.));
#581=CARTESIAN_POINT('',(6.9,1.85,-8.45006291411674E-16));
#582=CARTESIAN_POINT('',(0.,0.,0.));
#583=CARTESIAN_POINT('Origin',(0.,0.,6.9));
#584=CARTESIAN_POINT('',(0.,0.,6.9));
#585=CARTESIAN_POINT('',(0.,-8.45006291411674E-16,-6.9));
#586=CARTESIAN_POINT('Origin',(0.,0.,0.));
#587=CARTESIAN_POINT('Origin',(0.,0.,0.));
#588=CARTESIAN_POINT('Origin',(-1.85,0.,0.));
#589=CARTESIAN_POINT('',(-3.7,0.,6.9));
#590=CARTESIAN_POINT('',(-3.7,-8.45006291411674E-16,-6.9));
#591=CARTESIAN_POINT('Origin',(-3.7,0.,0.));
#592=CARTESIAN_POINT('Origin',(-3.7,0.,0.));
#593=CARTESIAN_POINT('',(-1.85,-8.45006291411674E-16,-6.9));
#594=CARTESIAN_POINT('Origin',(-3.7,0.,0.));
#595=CARTESIAN_POINT('',(0.,0.,0.));
#596=CARTESIAN_POINT('',(0.,0.799999999999999,0.));
#597=CARTESIAN_POINT('',(0.,0.800000000000001,0.));
#598=UNCERTAINTY_MEASURE_WITH_UNIT(LENGTH_MEASURE(0.01),#608,
'DISTANCE_ACCURACY_VALUE',
'Maximum model space distance between geometric entities at asserted c
onnectivities');
#599=UNCERTAINTY_MEASURE_WITH_UNIT(LENGTH_MEASURE(0.01),#608,
'DISTANCE_ACCURACY_VALUE',
'Maximum model space distance between geometric entities at asserted c
onnectivities');
#600=UNCERTAINTY_MEASURE_WITH_UNIT(LENGTH_MEASURE(0.01),#608,
'DISTANCE_ACCURACY_VALUE',
'Maximum model space distance between geometric entities at asserted c
onnectivities');
#601=UNCERTAINTY_MEASURE_WITH_UNIT(LENGTH_MEASURE(0.01),#608,
'DISTANCE_ACCURACY_VALUE',
'Maximum model space distance between geometric entities at asserted c
onnectivities');
#602=UNCERTAINTY_MEASURE_WITH_UNIT(LENGTH_MEASURE(0.01),#608,
'DISTANCE_ACCURACY_VALUE',
'Maximum model space distance between geometric entities at asserted c
onnectivities');
#603=(
GEOMETRIC_REPRESENTATION_CONTEXT(3)
GLOBAL_UNCERTAINTY_ASSIGNED_CONTEXT((#598))
GLOBAL_UNIT_ASSIGNED_CONTEXT((#608,#610,#611))
REPRESENTATION_CONTEXT('','3D')
);
#604=(
GEOMETRIC_REPRESENTATION_CONTEXT(3)
GLOBAL_UNCERTAINTY_ASSIGNED_CONTEXT((#599))
GLOBAL_UNIT_ASSIGNED_CONTEXT((#608,#610,#611))
REPRESENTATION_CONTEXT('','3D')
);
#605=(
GEOMETRIC_REPRESENTATION_CONTEXT(3)
GLOBAL_UNCERTAINTY_ASSIGNED_CONTEXT((#600))
GLOBAL_UNIT_ASSIGNED_CONTEXT((#608,#610,#611))
REPRESENTATION_CONTEXT('','3D')
);
#606=(
GEOMETRIC_REPRESENTATION_CONTEXT(3)
GLOBAL_UNCERTAINTY_ASSIGNED_CONTEXT((#601))
GLOBAL_UNIT_ASSIGNED_CONTEXT((#608,#610,#611))
REPRESENTATION_CONTEXT('','3D')
);
#607=(
GEOMETRIC_REPRESENTATION_CONTEXT(3)
GLOBAL_UNCERTAINTY_ASSIGNED_CONTEXT((#602))
GLOBAL_UNIT_ASSIGNED_CONTEXT((#608,#610,#611))
REPRESENTATION_CONTEXT('','3D')
);
#608=(
LENGTH_UNIT()
NAMED_UNIT(*)
SI_UNIT(.MILLI.,.METRE.)
);
#609=(
LENGTH_UNIT()
NAMED_UNIT(*)
SI_UNIT(.CENTI.,.METRE.)
);
#610=(
NAMED_UNIT(*)
PLANE_ANGLE_UNIT()
SI_UNIT($,.RADIAN.)
);
#611=(
NAMED_UNIT(*)
SI_UNIT($,.STERADIAN.)
SOLID_ANGLE_UNIT()
);
#612=SHAPE_DEFINITION_REPRESENTATION(#616,#623);
#613=SHAPE_DEFINITION_REPRESENTATION(#617,#624);
#614=SHAPE_DEFINITION_REPRESENTATION(#618,#625);
#615=SHAPE_DEFINITION_REPRESENTATION(#619,#626);
#616=PRODUCT_DEFINITION_SHAPE('',$,#628);
#617=PRODUCT_DEFINITION_SHAPE('',$,#629);
#618=PRODUCT_DEFINITION_SHAPE('',$,#630);
#619=PRODUCT_DEFINITION_SHAPE('',$,#631);
#620=PRODUCT_DEFINITION_SHAPE($,$,#20);
#621=PRODUCT_DEFINITION_SHAPE($,$,#21);
#622=PRODUCT_DEFINITION_SHAPE($,$,#22);
#623=SHAPE_REPRESENTATION('',(#359,#406,#407,#408),#603);
#624=SHAPE_REPRESENTATION('',(#360),#604);
#625=SHAPE_REPRESENTATION('',(#382),#605);
#626=SHAPE_REPRESENTATION('',(#398),#606);
#627=PRODUCT_DEFINITION_CONTEXT('part definition',#641,'design');
#628=PRODUCT_DEFINITION('GM16403','GM16403',#632,#627);
#629=PRODUCT_DEFINITION('E0120591','E0120591',#633,#627);
#630=PRODUCT_DEFINITION('E0120592','E0120592',#634,#627);
#631=PRODUCT_DEFINITION('E0120590','E0120590',#635,#627);
#632=PRODUCT_DEFINITION_FORMATION('-',$,#643);
#633=PRODUCT_DEFINITION_FORMATION('-',$,#644);
#634=PRODUCT_DEFINITION_FORMATION('-',$,#645);
#635=PRODUCT_DEFINITION_FORMATION('-',$,#646);
#636=PRODUCT_RELATED_PRODUCT_CATEGORY('GM16403','GM16403',(#643));
#637=PRODUCT_RELATED_PRODUCT_CATEGORY('E0120591','E0120591',(#644));
#638=PRODUCT_RELATED_PRODUCT_CATEGORY('E0120592','E0120592',(#645));
#639=PRODUCT_RELATED_PRODUCT_CATEGORY('E0120590','E0120590',(#646));
#640=APPLICATION_PROTOCOL_DEFINITION('international standard',
'automotive_design',2009,#641);
#641=APPLICATION_CONTEXT(
'Core Data for Automotive Mechanical Design Process');
#642=PRODUCT_CONTEXT('part definition',#641,'mechanical');
#643=PRODUCT('GM16403','GM16403',$,(#642));
#644=PRODUCT('E0120591','E0120591',$,(#642));
#645=PRODUCT('E0120592','E0120592',$,(#642));
#646=PRODUCT('E0120590','E0120590',$,(#642));
ENDSEC;
END-ISO-10303-21;
