ISO-10303-21;
HEADER;
/* Generated by software containing ST-Developer
 * from STEP Tools, Inc. (www.steptools.com) 
 */

FILE_DESCRIPTION(
/* description */ (''),
/* implementation_level */ '2;1');

FILE_NAME(
/* name */ 
'C:\\Workspace\\Documents\\Manufacturing\\33\\E\\Potmagneten\\GM16404\\
GM16404.stp',
/* time_stamp */ '2019-09-25T07:59:15+02:00',
/* author */ ('PV'),
/* organization */ (''),
/* preprocessor_version */ 'ST-DEVELOPER v17.2',
/* originating_system */ 'Autodesk Inventor 2019',
/* authorisation */ '');

FILE_SCHEMA (('AUTOMOTIVE_DESIGN { 1 0 10303 214 3 1 1 }'));
ENDSEC;

DATA;
#10=MECHANICAL_DESIGN_GEOMETRIC_PRESENTATION_REPRESENTATION('',(#29,#30,
#31,#32,#33,#34),#600);
#11=ITEM_DEFINED_TRANSFORMATION($,$,#346,#394);
#12=ITEM_DEFINED_TRANSFORMATION($,$,#370,#395);
#13=ITEM_DEFINED_TRANSFORMATION($,$,#386,#396);
#14=(
REPRESENTATION_RELATIONSHIP($,$,#617,#616)
REPRESENTATION_RELATIONSHIP_WITH_TRANSFORMATION(#11)
SHAPE_REPRESENTATION_RELATIONSHIP()
);
#15=(
REPRESENTATION_RELATIONSHIP($,$,#618,#616)
REPRESENTATION_RELATIONSHIP_WITH_TRANSFORMATION(#12)
SHAPE_REPRESENTATION_RELATIONSHIP()
);
#16=(
REPRESENTATION_RELATIONSHIP($,$,#619,#616)
REPRESENTATION_RELATIONSHIP_WITH_TRANSFORMATION(#13)
SHAPE_REPRESENTATION_RELATIONSHIP()
);
#17=CONTEXT_DEPENDENT_SHAPE_REPRESENTATION(#14,#613);
#18=CONTEXT_DEPENDENT_SHAPE_REPRESENTATION(#15,#614);
#19=CONTEXT_DEPENDENT_SHAPE_REPRESENTATION(#16,#615);
#20=NEXT_ASSEMBLY_USAGE_OCCURRENCE('E0120596/- - OUTER HOUSING:1',
'E0120596/- - OUTER HOUSING:1','E0120596/- - OUTER HOUSING:1',#621,#622,
'E0120596/- - OUTER HOUSING:1');
#21=NEXT_ASSEMBLY_USAGE_OCCURRENCE('E0120597/- - GLUE:1',
'E0120597/- - GLUE:1','E0120597/- - GLUE:1',#621,#623,
'E0120597/- - GLUE:1');
#22=NEXT_ASSEMBLY_USAGE_OCCURRENCE('E0120595/- - MAGNET:1',
'E0120595/- - MAGNET:1','E0120595/- - MAGNET:1',#621,#624,
'E0120595/- - MAGNET:1');
#23=SHAPE_REPRESENTATION_RELATIONSHIP('SRR','None',#617,#26);
#24=SHAPE_REPRESENTATION_RELATIONSHIP('SRR','None',#618,#27);
#25=SHAPE_REPRESENTATION_RELATIONSHIP('SRR','None',#619,#28);
#26=ADVANCED_BREP_SHAPE_REPRESENTATION('',(#35),#597);
#27=ADVANCED_BREP_SHAPE_REPRESENTATION('',(#36),#598);
#28=ADVANCED_BREP_SHAPE_REPRESENTATION('',(#37),#599);
#29=STYLED_ITEM('',(#312),#35);
#30=STYLED_ITEM('',(#313),#36);
#31=STYLED_ITEM('',(#314),#272);
#32=STYLED_ITEM('',(#314),#273);
#33=STYLED_ITEM('',(#314),#274);
#34=STYLED_ITEM('',(#312),#37);
#35=MANIFOLD_SOLID_BREP('Solid2',#275);
#36=MANIFOLD_SOLID_BREP('Solid2',#276);
#37=MANIFOLD_SOLID_BREP('Solid2',#277);
#38=TOROIDAL_SURFACE('',#356,8.8,0.2);
#39=TOROIDAL_SURFACE('',#364,8.8,1.2);
#40=TOROIDAL_SURFACE('',#371,8.8,0.2);
#41=LINE('',#519,#46);
#42=LINE('',#546,#47);
#43=LINE('',#567,#48);
#44=LINE('',#574,#49);
#45=LINE('',#586,#50);
#46=VECTOR('',#413,9.);
#47=VECTOR('',#448,10.);
#48=VECTOR('',#473,9.);
#49=VECTOR('',#482,8.7);
#50=VECTOR('',#497,8.7);
#51=CYLINDRICAL_SURFACE('',#352,9.);
#52=CYLINDRICAL_SURFACE('',#369,10.);
#53=CYLINDRICAL_SURFACE('',#379,9.);
#54=CYLINDRICAL_SURFACE('',#385,8.7);
#55=CYLINDRICAL_SURFACE('',#390,8.7);
#56=FACE_BOUND('',#73,.T.);
#57=FACE_BOUND('',#83,.T.);
#58=FACE_OUTER_BOUND('',#72,.T.);
#59=FACE_OUTER_BOUND('',#74,.T.);
#60=FACE_OUTER_BOUND('',#75,.T.);
#61=FACE_OUTER_BOUND('',#76,.T.);
#62=FACE_OUTER_BOUND('',#77,.T.);
#63=FACE_OUTER_BOUND('',#78,.T.);
#64=FACE_OUTER_BOUND('',#79,.T.);
#65=FACE_OUTER_BOUND('',#80,.T.);
#66=FACE_OUTER_BOUND('',#81,.T.);
#67=FACE_OUTER_BOUND('',#82,.T.);
#68=FACE_OUTER_BOUND('',#84,.T.);
#69=FACE_OUTER_BOUND('',#85,.T.);
#70=FACE_OUTER_BOUND('',#86,.T.);
#71=FACE_OUTER_BOUND('',#87,.T.);
#72=EDGE_LOOP('',(#183,#184));
#73=EDGE_LOOP('',(#185,#186));
#74=EDGE_LOOP('',(#187,#188,#189,#190,#191,#192,#193));
#75=EDGE_LOOP('',(#194,#195,#196,#197,#198,#199,#200));
#76=EDGE_LOOP('',(#201,#202));
#77=EDGE_LOOP('',(#203,#204));
#78=EDGE_LOOP('',(#205,#206,#207,#208,#209,#210,#211));
#79=EDGE_LOOP('',(#212,#213,#214,#215,#216,#217,#218));
#80=EDGE_LOOP('',(#219,#220,#221,#222,#223,#224,#225,#226));
#81=EDGE_LOOP('',(#227,#228,#229,#230,#231,#232,#233));
#82=EDGE_LOOP('',(#234,#235));
#83=EDGE_LOOP('',(#236,#237));
#84=EDGE_LOOP('',(#238,#239,#240,#241,#242,#243,#244));
#85=EDGE_LOOP('',(#245,#246));
#86=EDGE_LOOP('',(#247,#248,#249,#250,#251,#252));
#87=EDGE_LOOP('',(#253,#254));
#88=CIRCLE('',#348,10.);
#89=CIRCLE('',#349,10.);
#90=CIRCLE('',#350,9.);
#91=CIRCLE('',#351,9.);
#92=CIRCLE('',#353,9.);
#93=CIRCLE('',#354,9.);
#94=CIRCLE('',#355,9.);
#95=CIRCLE('',#357,0.2);
#96=CIRCLE('',#358,8.8);
#97=CIRCLE('',#359,8.8);
#98=CIRCLE('',#362,8.8);
#99=CIRCLE('',#363,8.8);
#100=CIRCLE('',#365,10.);
#101=CIRCLE('',#366,10.);
#102=CIRCLE('',#367,1.2);
#103=CIRCLE('',#368,10.);
#104=CIRCLE('',#372,9.);
#105=CIRCLE('',#373,9.);
#106=CIRCLE('',#374,0.2);
#107=CIRCLE('',#375,8.7);
#108=CIRCLE('',#376,8.7);
#109=CIRCLE('',#377,8.7);
#110=CIRCLE('',#378,9.);
#111=CIRCLE('',#380,9.);
#112=CIRCLE('',#381,9.);
#113=CIRCLE('',#383,8.7);
#114=CIRCLE('',#384,8.7);
#115=CIRCLE('',#388,8.7);
#116=CIRCLE('',#389,8.7);
#117=CIRCLE('',#391,8.7);
#118=CIRCLE('',#392,8.7);
#119=VERTEX_POINT('',#509);
#120=VERTEX_POINT('',#510);
#121=VERTEX_POINT('',#513);
#122=VERTEX_POINT('',#514);
#123=VERTEX_POINT('',#518);
#124=VERTEX_POINT('',#520);
#125=VERTEX_POINT('',#522);
#126=VERTEX_POINT('',#526);
#127=VERTEX_POINT('',#528);
#128=VERTEX_POINT('',#533);
#129=VERTEX_POINT('',#534);
#130=VERTEX_POINT('',#538);
#131=VERTEX_POINT('',#539);
#132=VERTEX_POINT('',#541);
#133=VERTEX_POINT('',#549);
#134=VERTEX_POINT('',#550);
#135=VERTEX_POINT('',#552);
#136=VERTEX_POINT('',#554);
#137=VERTEX_POINT('',#556);
#138=VERTEX_POINT('',#558);
#139=VERTEX_POINT('',#563);
#140=VERTEX_POINT('',#564);
#141=VERTEX_POINT('',#569);
#142=VERTEX_POINT('',#570);
#143=VERTEX_POINT('',#577);
#144=VERTEX_POINT('',#578);
#145=VERTEX_POINT('',#582);
#146=VERTEX_POINT('',#583);
#147=EDGE_CURVE('',#119,#120,#88,.T.);
#148=EDGE_CURVE('',#120,#119,#89,.T.);
#149=EDGE_CURVE('',#121,#122,#90,.T.);
#150=EDGE_CURVE('',#122,#121,#91,.T.);
#151=EDGE_CURVE('',#122,#123,#41,.T.);
#152=EDGE_CURVE('',#124,#123,#92,.T.);
#153=EDGE_CURVE('',#125,#124,#93,.T.);
#154=EDGE_CURVE('',#123,#125,#94,.T.);
#155=EDGE_CURVE('',#125,#126,#95,.T.);
#156=EDGE_CURVE('',#127,#126,#96,.T.);
#157=EDGE_CURVE('',#126,#127,#97,.T.);
#158=EDGE_CURVE('',#128,#129,#98,.T.);
#159=EDGE_CURVE('',#129,#128,#99,.T.);
#160=EDGE_CURVE('',#130,#131,#100,.T.);
#161=EDGE_CURVE('',#132,#130,#101,.T.);
#162=EDGE_CURVE('',#132,#129,#102,.T.);
#163=EDGE_CURVE('',#131,#132,#103,.T.);
#164=EDGE_CURVE('',#120,#131,#42,.T.);
#165=EDGE_CURVE('',#133,#134,#104,.T.);
#166=EDGE_CURVE('',#135,#133,#105,.T.);
#167=EDGE_CURVE('',#135,#136,#106,.T.);
#168=EDGE_CURVE('',#136,#137,#107,.T.);
#169=EDGE_CURVE('',#137,#138,#108,.T.);
#170=EDGE_CURVE('',#138,#136,#109,.T.);
#171=EDGE_CURVE('',#134,#135,#110,.T.);
#172=EDGE_CURVE('',#139,#140,#111,.T.);
#173=EDGE_CURVE('',#140,#139,#112,.T.);
#174=EDGE_CURVE('',#140,#134,#43,.T.);
#175=EDGE_CURVE('',#141,#142,#113,.T.);
#176=EDGE_CURVE('',#142,#141,#114,.T.);
#177=EDGE_CURVE('',#142,#138,#44,.T.);
#178=EDGE_CURVE('',#143,#144,#115,.T.);
#179=EDGE_CURVE('',#144,#143,#116,.T.);
#180=EDGE_CURVE('',#145,#146,#117,.T.);
#181=EDGE_CURVE('',#146,#145,#118,.T.);
#182=EDGE_CURVE('',#146,#144,#45,.T.);
#183=ORIENTED_EDGE('',*,*,#147,.T.);
#184=ORIENTED_EDGE('',*,*,#148,.T.);
#185=ORIENTED_EDGE('',*,*,#149,.F.);
#186=ORIENTED_EDGE('',*,*,#150,.F.);
#187=ORIENTED_EDGE('',*,*,#149,.T.);
#188=ORIENTED_EDGE('',*,*,#151,.T.);
#189=ORIENTED_EDGE('',*,*,#152,.F.);
#190=ORIENTED_EDGE('',*,*,#153,.F.);
#191=ORIENTED_EDGE('',*,*,#154,.F.);
#192=ORIENTED_EDGE('',*,*,#151,.F.);
#193=ORIENTED_EDGE('',*,*,#150,.T.);
#194=ORIENTED_EDGE('',*,*,#152,.T.);
#195=ORIENTED_EDGE('',*,*,#154,.T.);
#196=ORIENTED_EDGE('',*,*,#155,.T.);
#197=ORIENTED_EDGE('',*,*,#156,.F.);
#198=ORIENTED_EDGE('',*,*,#157,.F.);
#199=ORIENTED_EDGE('',*,*,#155,.F.);
#200=ORIENTED_EDGE('',*,*,#153,.T.);
#201=ORIENTED_EDGE('',*,*,#156,.T.);
#202=ORIENTED_EDGE('',*,*,#157,.T.);
#203=ORIENTED_EDGE('',*,*,#158,.F.);
#204=ORIENTED_EDGE('',*,*,#159,.F.);
#205=ORIENTED_EDGE('',*,*,#160,.F.);
#206=ORIENTED_EDGE('',*,*,#161,.F.);
#207=ORIENTED_EDGE('',*,*,#162,.T.);
#208=ORIENTED_EDGE('',*,*,#159,.T.);
#209=ORIENTED_EDGE('',*,*,#158,.T.);
#210=ORIENTED_EDGE('',*,*,#162,.F.);
#211=ORIENTED_EDGE('',*,*,#163,.F.);
#212=ORIENTED_EDGE('',*,*,#147,.F.);
#213=ORIENTED_EDGE('',*,*,#148,.F.);
#214=ORIENTED_EDGE('',*,*,#164,.T.);
#215=ORIENTED_EDGE('',*,*,#163,.T.);
#216=ORIENTED_EDGE('',*,*,#161,.T.);
#217=ORIENTED_EDGE('',*,*,#160,.T.);
#218=ORIENTED_EDGE('',*,*,#164,.F.);
#219=ORIENTED_EDGE('',*,*,#165,.F.);
#220=ORIENTED_EDGE('',*,*,#166,.F.);
#221=ORIENTED_EDGE('',*,*,#167,.T.);
#222=ORIENTED_EDGE('',*,*,#168,.T.);
#223=ORIENTED_EDGE('',*,*,#169,.T.);
#224=ORIENTED_EDGE('',*,*,#170,.T.);
#225=ORIENTED_EDGE('',*,*,#167,.F.);
#226=ORIENTED_EDGE('',*,*,#171,.F.);
#227=ORIENTED_EDGE('',*,*,#172,.F.);
#228=ORIENTED_EDGE('',*,*,#173,.F.);
#229=ORIENTED_EDGE('',*,*,#174,.T.);
#230=ORIENTED_EDGE('',*,*,#171,.T.);
#231=ORIENTED_EDGE('',*,*,#166,.T.);
#232=ORIENTED_EDGE('',*,*,#165,.T.);
#233=ORIENTED_EDGE('',*,*,#174,.F.);
#234=ORIENTED_EDGE('',*,*,#172,.T.);
#235=ORIENTED_EDGE('',*,*,#173,.T.);
#236=ORIENTED_EDGE('',*,*,#175,.F.);
#237=ORIENTED_EDGE('',*,*,#176,.F.);
#238=ORIENTED_EDGE('',*,*,#175,.T.);
#239=ORIENTED_EDGE('',*,*,#177,.T.);
#240=ORIENTED_EDGE('',*,*,#169,.F.);
#241=ORIENTED_EDGE('',*,*,#168,.F.);
#242=ORIENTED_EDGE('',*,*,#170,.F.);
#243=ORIENTED_EDGE('',*,*,#177,.F.);
#244=ORIENTED_EDGE('',*,*,#176,.T.);
#245=ORIENTED_EDGE('',*,*,#178,.F.);
#246=ORIENTED_EDGE('',*,*,#179,.F.);
#247=ORIENTED_EDGE('',*,*,#180,.F.);
#248=ORIENTED_EDGE('',*,*,#181,.F.);
#249=ORIENTED_EDGE('',*,*,#182,.T.);
#250=ORIENTED_EDGE('',*,*,#179,.T.);
#251=ORIENTED_EDGE('',*,*,#178,.T.);
#252=ORIENTED_EDGE('',*,*,#182,.F.);
#253=ORIENTED_EDGE('',*,*,#180,.T.);
#254=ORIENTED_EDGE('',*,*,#181,.T.);
#255=PLANE('',#347);
#256=PLANE('',#360);
#257=PLANE('',#361);
#258=PLANE('',#382);
#259=PLANE('',#387);
#260=PLANE('',#393);
#261=ADVANCED_FACE('',(#58,#56),#255,.T.);
#262=ADVANCED_FACE('',(#59),#51,.F.);
#263=ADVANCED_FACE('',(#60),#38,.F.);
#264=ADVANCED_FACE('',(#61),#256,.T.);
#265=ADVANCED_FACE('',(#62),#257,.T.);
#266=ADVANCED_FACE('',(#63),#39,.T.);
#267=ADVANCED_FACE('',(#64),#52,.T.);
#268=ADVANCED_FACE('',(#65),#40,.T.);
#269=ADVANCED_FACE('',(#66),#53,.T.);
#270=ADVANCED_FACE('',(#67,#57),#258,.T.);
#271=ADVANCED_FACE('',(#68),#54,.F.);
#272=ADVANCED_FACE('',(#69),#259,.T.);
#273=ADVANCED_FACE('',(#70),#55,.T.);
#274=ADVANCED_FACE('',(#71),#260,.T.);
#275=CLOSED_SHELL('',(#261,#262,#263,#264,#265,#266,#267));
#276=CLOSED_SHELL('',(#268,#269,#270,#271));
#277=CLOSED_SHELL('',(#272,#273,#274));
#278=DERIVED_UNIT_ELEMENT(#284,1.);
#279=DERIVED_UNIT_ELEMENT(#602,3.);
#280=DERIVED_UNIT_ELEMENT(#284,1.);
#281=DERIVED_UNIT_ELEMENT(#602,3.);
#282=DERIVED_UNIT_ELEMENT(#284,1.);
#283=DERIVED_UNIT_ELEMENT(#602,3.);
#284=(
MASS_UNIT()
NAMED_UNIT(*)
SI_UNIT($,.GRAM.)
);
#285=DERIVED_UNIT((#278,#279));
#286=DERIVED_UNIT((#280,#281));
#287=DERIVED_UNIT((#282,#283));
#288=MEASURE_REPRESENTATION_ITEM('density measure',
POSITIVE_RATIO_MEASURE(7.85),#285);
#289=MEASURE_REPRESENTATION_ITEM('density measure',
POSITIVE_RATIO_MEASURE(1.),#286);
#290=MEASURE_REPRESENTATION_ITEM('density measure',
POSITIVE_RATIO_MEASURE(7.85),#287);
#291=PROPERTY_DEFINITION_REPRESENTATION(#306,#297);
#292=PROPERTY_DEFINITION_REPRESENTATION(#307,#298);
#293=PROPERTY_DEFINITION_REPRESENTATION(#308,#299);
#294=PROPERTY_DEFINITION_REPRESENTATION(#309,#300);
#295=PROPERTY_DEFINITION_REPRESENTATION(#310,#301);
#296=PROPERTY_DEFINITION_REPRESENTATION(#311,#302);
#297=REPRESENTATION('material name',(#303),#597);
#298=REPRESENTATION('density',(#288),#597);
#299=REPRESENTATION('material name',(#304),#598);
#300=REPRESENTATION('density',(#289),#598);
#301=REPRESENTATION('material name',(#305),#599);
#302=REPRESENTATION('density',(#290),#599);
#303=DESCRIPTIVE_REPRESENTATION_ITEM('Steel, Carbon','Steel, Carbon');
#304=DESCRIPTIVE_REPRESENTATION_ITEM('PE','PE');
#305=DESCRIPTIVE_REPRESENTATION_ITEM('Steel, Carbon','Steel, Carbon');
#306=PROPERTY_DEFINITION('material property','material name',#622);
#307=PROPERTY_DEFINITION('material property','density of part',#622);
#308=PROPERTY_DEFINITION('material property','material name',#623);
#309=PROPERTY_DEFINITION('material property','density of part',#623);
#310=PROPERTY_DEFINITION('material property','material name',#624);
#311=PROPERTY_DEFINITION('material property','density of part',#624);
#312=PRESENTATION_STYLE_ASSIGNMENT((#315));
#313=PRESENTATION_STYLE_ASSIGNMENT((#316));
#314=PRESENTATION_STYLE_ASSIGNMENT((#317));
#315=SURFACE_STYLE_USAGE(.BOTH.,#324);
#316=SURFACE_STYLE_USAGE(.BOTH.,#325);
#317=SURFACE_STYLE_USAGE(.BOTH.,#326);
#318=SURFACE_STYLE_RENDERING_WITH_PROPERTIES($,#336,(#321));
#319=SURFACE_STYLE_RENDERING_WITH_PROPERTIES($,#337,(#322));
#320=SURFACE_STYLE_RENDERING_WITH_PROPERTIES($,#338,(#323));
#321=SURFACE_STYLE_TRANSPARENT(0.);
#322=SURFACE_STYLE_TRANSPARENT(0.);
#323=SURFACE_STYLE_TRANSPARENT(0.);
#324=SURFACE_SIDE_STYLE('',(#327,#318));
#325=SURFACE_SIDE_STYLE('',(#328,#319));
#326=SURFACE_SIDE_STYLE('',(#329,#320));
#327=SURFACE_STYLE_FILL_AREA(#330);
#328=SURFACE_STYLE_FILL_AREA(#331);
#329=SURFACE_STYLE_FILL_AREA(#332);
#330=FILL_AREA_STYLE('',(#333));
#331=FILL_AREA_STYLE('',(#334));
#332=FILL_AREA_STYLE('',(#335));
#333=FILL_AREA_STYLE_COLOUR('',#336);
#334=FILL_AREA_STYLE_COLOUR('',#337);
#335=FILL_AREA_STYLE_COLOUR('',#338);
#336=COLOUR_RGB('',0.745098039215686,0.737254901960784,0.729411764705882);
#337=COLOUR_RGB('',0.,0.,0.);
#338=COLOUR_RGB('',0.501960784313725,1.,0.501960784313725);
#339=DATE_TIME_ROLE('creation_date');
#340=APPLIED_DATE_AND_TIME_ASSIGNMENT(#341,#339,(#621));
#341=DATE_AND_TIME(#342,#343);
#342=CALENDAR_DATE(2019,8,8);
#343=LOCAL_TIME(22,0,0.,#344);
#344=COORDINATED_UNIVERSAL_TIME_OFFSET(0,0,.BEHIND.);
#345=AXIS2_PLACEMENT_3D('placement',#506,#397,#398);
#346=AXIS2_PLACEMENT_3D('placement',#507,#399,#400);
#347=AXIS2_PLACEMENT_3D('',#508,#401,#402);
#348=AXIS2_PLACEMENT_3D('',#511,#403,#404);
#349=AXIS2_PLACEMENT_3D('',#512,#405,#406);
#350=AXIS2_PLACEMENT_3D('',#515,#407,#408);
#351=AXIS2_PLACEMENT_3D('',#516,#409,#410);
#352=AXIS2_PLACEMENT_3D('',#517,#411,#412);
#353=AXIS2_PLACEMENT_3D('',#521,#414,#415);
#354=AXIS2_PLACEMENT_3D('',#523,#416,#417);
#355=AXIS2_PLACEMENT_3D('',#524,#418,#419);
#356=AXIS2_PLACEMENT_3D('',#525,#420,#421);
#357=AXIS2_PLACEMENT_3D('',#527,#422,#423);
#358=AXIS2_PLACEMENT_3D('',#529,#424,#425);
#359=AXIS2_PLACEMENT_3D('',#530,#426,#427);
#360=AXIS2_PLACEMENT_3D('',#531,#428,#429);
#361=AXIS2_PLACEMENT_3D('',#532,#430,#431);
#362=AXIS2_PLACEMENT_3D('',#535,#432,#433);
#363=AXIS2_PLACEMENT_3D('',#536,#434,#435);
#364=AXIS2_PLACEMENT_3D('',#537,#436,#437);
#365=AXIS2_PLACEMENT_3D('',#540,#438,#439);
#366=AXIS2_PLACEMENT_3D('',#542,#440,#441);
#367=AXIS2_PLACEMENT_3D('',#543,#442,#443);
#368=AXIS2_PLACEMENT_3D('',#544,#444,#445);
#369=AXIS2_PLACEMENT_3D('',#545,#446,#447);
#370=AXIS2_PLACEMENT_3D('placement',#547,#449,#450);
#371=AXIS2_PLACEMENT_3D('',#548,#451,#452);
#372=AXIS2_PLACEMENT_3D('',#551,#453,#454);
#373=AXIS2_PLACEMENT_3D('',#553,#455,#456);
#374=AXIS2_PLACEMENT_3D('',#555,#457,#458);
#375=AXIS2_PLACEMENT_3D('',#557,#459,#460);
#376=AXIS2_PLACEMENT_3D('',#559,#461,#462);
#377=AXIS2_PLACEMENT_3D('',#560,#463,#464);
#378=AXIS2_PLACEMENT_3D('',#561,#465,#466);
#379=AXIS2_PLACEMENT_3D('',#562,#467,#468);
#380=AXIS2_PLACEMENT_3D('',#565,#469,#470);
#381=AXIS2_PLACEMENT_3D('',#566,#471,#472);
#382=AXIS2_PLACEMENT_3D('',#568,#474,#475);
#383=AXIS2_PLACEMENT_3D('',#571,#476,#477);
#384=AXIS2_PLACEMENT_3D('',#572,#478,#479);
#385=AXIS2_PLACEMENT_3D('',#573,#480,#481);
#386=AXIS2_PLACEMENT_3D('placement',#575,#483,#484);
#387=AXIS2_PLACEMENT_3D('',#576,#485,#486);
#388=AXIS2_PLACEMENT_3D('',#579,#487,#488);
#389=AXIS2_PLACEMENT_3D('',#580,#489,#490);
#390=AXIS2_PLACEMENT_3D('',#581,#491,#492);
#391=AXIS2_PLACEMENT_3D('',#584,#493,#494);
#392=AXIS2_PLACEMENT_3D('',#585,#495,#496);
#393=AXIS2_PLACEMENT_3D('',#587,#498,#499);
#394=AXIS2_PLACEMENT_3D('',#588,#500,#501);
#395=AXIS2_PLACEMENT_3D('',#589,#502,#503);
#396=AXIS2_PLACEMENT_3D('',#590,#504,#505);
#397=DIRECTION('axis',(0.,0.,1.));
#398=DIRECTION('refdir',(1.,0.,0.));
#399=DIRECTION('axis',(0.,0.,1.));
#400=DIRECTION('refdir',(1.,0.,0.));
#401=DIRECTION('center_axis',(0.,1.,0.));
#402=DIRECTION('ref_axis',(0.,0.,1.));
#403=DIRECTION('center_axis',(0.,1.,0.));
#404=DIRECTION('ref_axis',(1.,0.,0.));
#405=DIRECTION('center_axis',(0.,1.,0.));
#406=DIRECTION('ref_axis',(1.,0.,0.));
#407=DIRECTION('center_axis',(0.,1.,0.));
#408=DIRECTION('ref_axis',(1.,0.,0.));
#409=DIRECTION('center_axis',(0.,1.,0.));
#410=DIRECTION('ref_axis',(1.,0.,0.));
#411=DIRECTION('center_axis',(0.,1.,0.));
#412=DIRECTION('ref_axis',(-1.,0.,0.));
#413=DIRECTION('',(0.,-1.,0.));
#414=DIRECTION('center_axis',(0.,1.,0.));
#415=DIRECTION('ref_axis',(1.,0.,0.));
#416=DIRECTION('center_axis',(0.,1.,0.));
#417=DIRECTION('ref_axis',(1.,0.,0.));
#418=DIRECTION('center_axis',(0.,1.,0.));
#419=DIRECTION('ref_axis',(1.,0.,0.));
#420=DIRECTION('center_axis',(0.,1.,0.));
#421=DIRECTION('ref_axis',(0.,0.,1.));
#422=DIRECTION('center_axis',(-1.,0.,1.22464679914735E-16));
#423=DIRECTION('ref_axis',(-1.22464679914735E-16,0.,-1.));
#424=DIRECTION('center_axis',(0.,1.,0.));
#425=DIRECTION('ref_axis',(1.,0.,0.));
#426=DIRECTION('center_axis',(0.,1.,0.));
#427=DIRECTION('ref_axis',(1.,0.,0.));
#428=DIRECTION('center_axis',(0.,1.,0.));
#429=DIRECTION('ref_axis',(0.,0.,1.));
#430=DIRECTION('center_axis',(0.,-1.,0.));
#431=DIRECTION('ref_axis',(0.,0.,-1.));
#432=DIRECTION('center_axis',(0.,1.,0.));
#433=DIRECTION('ref_axis',(1.,0.,0.));
#434=DIRECTION('center_axis',(0.,1.,0.));
#435=DIRECTION('ref_axis',(1.,0.,0.));
#436=DIRECTION('center_axis',(0.,1.,0.));
#437=DIRECTION('ref_axis',(0.,0.,1.));
#438=DIRECTION('center_axis',(0.,1.,0.));
#439=DIRECTION('ref_axis',(1.,0.,0.));
#440=DIRECTION('center_axis',(0.,1.,0.));
#441=DIRECTION('ref_axis',(1.,0.,0.));
#442=DIRECTION('center_axis',(-1.,0.,1.22464679914735E-16));
#443=DIRECTION('ref_axis',(-1.22464679914735E-16,0.,-1.));
#444=DIRECTION('center_axis',(0.,1.,0.));
#445=DIRECTION('ref_axis',(1.,0.,0.));
#446=DIRECTION('center_axis',(0.,1.,0.));
#447=DIRECTION('ref_axis',(-1.,0.,0.));
#448=DIRECTION('',(0.,-1.,0.));
#449=DIRECTION('axis',(0.,0.,1.));
#450=DIRECTION('refdir',(1.,0.,0.));
#451=DIRECTION('center_axis',(0.,1.,0.));
#452=DIRECTION('ref_axis',(0.,0.,1.));
#453=DIRECTION('center_axis',(0.,1.,0.));
#454=DIRECTION('ref_axis',(1.,0.,0.));
#455=DIRECTION('center_axis',(0.,1.,0.));
#456=DIRECTION('ref_axis',(1.,0.,0.));
#457=DIRECTION('center_axis',(-1.,0.,1.22464679914735E-16));
#458=DIRECTION('ref_axis',(-1.22464679914735E-16,0.,-1.));
#459=DIRECTION('center_axis',(0.,1.,0.));
#460=DIRECTION('ref_axis',(1.,0.,0.));
#461=DIRECTION('center_axis',(0.,1.,0.));
#462=DIRECTION('ref_axis',(1.,0.,0.));
#463=DIRECTION('center_axis',(0.,1.,0.));
#464=DIRECTION('ref_axis',(1.,0.,0.));
#465=DIRECTION('center_axis',(0.,1.,0.));
#466=DIRECTION('ref_axis',(1.,0.,0.));
#467=DIRECTION('center_axis',(0.,1.,0.));
#468=DIRECTION('ref_axis',(-1.,0.,0.));
#469=DIRECTION('center_axis',(0.,1.,0.));
#470=DIRECTION('ref_axis',(1.,0.,0.));
#471=DIRECTION('center_axis',(0.,1.,0.));
#472=DIRECTION('ref_axis',(1.,0.,0.));
#473=DIRECTION('',(0.,-1.,0.));
#474=DIRECTION('center_axis',(0.,1.,0.));
#475=DIRECTION('ref_axis',(0.,0.,1.));
#476=DIRECTION('center_axis',(0.,1.,0.));
#477=DIRECTION('ref_axis',(1.,0.,0.));
#478=DIRECTION('center_axis',(0.,1.,0.));
#479=DIRECTION('ref_axis',(1.,0.,0.));
#480=DIRECTION('center_axis',(0.,1.,0.));
#481=DIRECTION('ref_axis',(-1.,0.,0.));
#482=DIRECTION('',(0.,-1.,0.));
#483=DIRECTION('axis',(0.,0.,1.));
#484=DIRECTION('refdir',(1.,0.,0.));
#485=DIRECTION('center_axis',(1.,0.,0.));
#486=DIRECTION('ref_axis',(0.,0.,-1.));
#487=DIRECTION('center_axis',(-1.,0.,0.));
#488=DIRECTION('ref_axis',(0.,0.,1.));
#489=DIRECTION('center_axis',(-1.,0.,0.));
#490=DIRECTION('ref_axis',(0.,0.,1.));
#491=DIRECTION('center_axis',(-1.,0.,0.));
#492=DIRECTION('ref_axis',(0.,0.,1.));
#493=DIRECTION('center_axis',(-1.,0.,0.));
#494=DIRECTION('ref_axis',(0.,0.,1.));
#495=DIRECTION('center_axis',(-1.,0.,0.));
#496=DIRECTION('ref_axis',(0.,0.,1.));
#497=DIRECTION('',(1.,0.,0.));
#498=DIRECTION('center_axis',(-1.,0.,0.));
#499=DIRECTION('ref_axis',(0.,0.,1.));
#500=DIRECTION('',(0.,0.,1.));
#501=DIRECTION('',(1.,0.,0.));
#502=DIRECTION('',(-0.20777609845556,0.,0.978176411957774));
#503=DIRECTION('',(0.978176411957774,0.,0.20777609845556));
#504=DIRECTION('',(-0.219266592432449,0.,0.97566498422515));
#505=DIRECTION('',(0.,-1.,0.));
#506=CARTESIAN_POINT('',(0.,0.,0.));
#507=CARTESIAN_POINT('',(0.,0.,0.));
#508=CARTESIAN_POINT('Origin',(-9.,6.,0.));
#509=CARTESIAN_POINT('',(-10.,6.,0.));
#510=CARTESIAN_POINT('',(10.,6.,-1.22464679914735E-15));
#511=CARTESIAN_POINT('Origin',(0.,6.,0.));
#512=CARTESIAN_POINT('Origin',(0.,6.,0.));
#513=CARTESIAN_POINT('',(-9.,6.,0.));
#514=CARTESIAN_POINT('',(9.,6.,-1.10218211923262E-15));
#515=CARTESIAN_POINT('Origin',(0.,6.,0.));
#516=CARTESIAN_POINT('Origin',(0.,6.,0.));
#517=CARTESIAN_POINT('Origin',(0.,3.6,0.));
#518=CARTESIAN_POINT('',(9.,1.2,-1.10218211923262E-15));
#519=CARTESIAN_POINT('',(9.,3.6,-1.10218211923262E-15));
#520=CARTESIAN_POINT('',(-9.,1.2,0.));
#521=CARTESIAN_POINT('Origin',(0.,1.2,0.));
#522=CARTESIAN_POINT('',(-1.10218211923262E-15,1.2,-9.));
#523=CARTESIAN_POINT('Origin',(0.,1.2,0.));
#524=CARTESIAN_POINT('Origin',(0.,1.2,0.));
#525=CARTESIAN_POINT('Origin',(0.,1.2,0.));
#526=CARTESIAN_POINT('',(-1.07768918324967E-15,0.999999999999999,-8.8));
#527=CARTESIAN_POINT('Origin',(-1.07768918324967E-15,1.2,-8.8));
#528=CARTESIAN_POINT('',(-8.8,0.999999999999999,0.));
#529=CARTESIAN_POINT('Origin',(0.,0.999999999999999,0.));
#530=CARTESIAN_POINT('Origin',(0.,0.999999999999999,0.));
#531=CARTESIAN_POINT('Origin',(-9.24446373308221E-34,1.,0.));
#532=CARTESIAN_POINT('Origin',(-8.8,-9.71445146547012E-16,0.));
#533=CARTESIAN_POINT('',(-8.8,-9.71445146547012E-16,0.));
#534=CARTESIAN_POINT('',(-1.07768918324967E-15,-1.11022302462516E-15,-8.8));
#535=CARTESIAN_POINT('Origin',(0.,-1.11022302462516E-15,0.));
#536=CARTESIAN_POINT('Origin',(0.,-1.11022302462516E-15,0.));
#537=CARTESIAN_POINT('Origin',(0.,1.2,0.));
#538=CARTESIAN_POINT('',(-10.,1.2,0.));
#539=CARTESIAN_POINT('',(10.,1.2,-1.22464679914735E-15));
#540=CARTESIAN_POINT('Origin',(0.,1.2,0.));
#541=CARTESIAN_POINT('',(-1.22464679914735E-15,1.2,-10.));
#542=CARTESIAN_POINT('Origin',(0.,1.2,0.));
#543=CARTESIAN_POINT('Origin',(-1.07768918324967E-15,1.2,-8.8));
#544=CARTESIAN_POINT('Origin',(0.,1.2,0.));
#545=CARTESIAN_POINT('Origin',(0.,3.6,0.));
#546=CARTESIAN_POINT('',(10.,3.6,-1.22464679914735E-15));
#547=CARTESIAN_POINT('',(0.,0.,0.));
#548=CARTESIAN_POINT('Origin',(0.,0.173205080756886,0.));
#549=CARTESIAN_POINT('',(-9.,0.173205080756886,0.));
#550=CARTESIAN_POINT('',(9.,0.173205080756886,-1.10218211923262E-15));
#551=CARTESIAN_POINT('Origin',(0.,0.173205080756886,0.));
#552=CARTESIAN_POINT('',(-1.10218211923262E-15,0.173205080756886,-9.));
#553=CARTESIAN_POINT('Origin',(0.,0.173205080756886,0.));
#554=CARTESIAN_POINT('',(-1.0654427152582E-15,-1.11022302462516E-15,-8.7));
#555=CARTESIAN_POINT('Origin',(-1.07768918324967E-15,0.173205080756886,
-8.8));
#556=CARTESIAN_POINT('',(-8.7,-1.0654427152582E-15,0.));
#557=CARTESIAN_POINT('Origin',(0.,-1.11022302462516E-15,0.));
#558=CARTESIAN_POINT('',(8.7,-1.11022302462516E-15,-1.0654427152582E-15));
#559=CARTESIAN_POINT('Origin',(0.,-1.11022302462516E-15,0.));
#560=CARTESIAN_POINT('Origin',(0.,-1.11022302462516E-15,0.));
#561=CARTESIAN_POINT('Origin',(0.,0.173205080756886,0.));
#562=CARTESIAN_POINT('Origin',(0.,2.58660254037844,0.));
#563=CARTESIAN_POINT('',(-9.,5.,0.));
#564=CARTESIAN_POINT('',(9.,5.,-1.10218211923262E-15));
#565=CARTESIAN_POINT('Origin',(0.,5.,0.));
#566=CARTESIAN_POINT('Origin',(0.,5.,0.));
#567=CARTESIAN_POINT('',(9.,2.58660254037844,-1.10218211923262E-15));
#568=CARTESIAN_POINT('Origin',(-8.7,5.,0.));
#569=CARTESIAN_POINT('',(-8.7,5.,0.));
#570=CARTESIAN_POINT('',(8.7,5.,-1.0654427152582E-15));
#571=CARTESIAN_POINT('Origin',(0.,5.,0.));
#572=CARTESIAN_POINT('Origin',(0.,5.,0.));
#573=CARTESIAN_POINT('Origin',(0.,2.5,0.));
#574=CARTESIAN_POINT('',(8.7,2.5,-1.0654427152582E-15));
#575=CARTESIAN_POINT('',(0.,0.,0.));
#576=CARTESIAN_POINT('Origin',(0.,0.,8.7));
#577=CARTESIAN_POINT('',(0.,0.,8.7));
#578=CARTESIAN_POINT('',(0.,-1.0654427152582E-15,-8.7));
#579=CARTESIAN_POINT('Origin',(0.,0.,0.));
#580=CARTESIAN_POINT('Origin',(0.,0.,0.));
#581=CARTESIAN_POINT('Origin',(-2.5,0.,0.));
#582=CARTESIAN_POINT('',(-5.,0.,8.7));
#583=CARTESIAN_POINT('',(-5.,-1.0654427152582E-15,-8.7));
#584=CARTESIAN_POINT('Origin',(-5.,0.,0.));
#585=CARTESIAN_POINT('Origin',(-5.,0.,0.));
#586=CARTESIAN_POINT('',(-2.5,-1.0654427152582E-15,-8.7));
#587=CARTESIAN_POINT('Origin',(-5.,0.,0.));
#588=CARTESIAN_POINT('',(0.,0.,0.));
#589=CARTESIAN_POINT('',(0.,1.,0.));
#590=CARTESIAN_POINT('',(0.,1.,0.));
#591=UNCERTAINTY_MEASURE_WITH_UNIT(LENGTH_MEASURE(0.01),#601,
'DISTANCE_ACCURACY_VALUE',
'Maximum model space distance between geometric entities at asserted c
onnectivities');
#592=UNCERTAINTY_MEASURE_WITH_UNIT(LENGTH_MEASURE(0.01),#601,
'DISTANCE_ACCURACY_VALUE',
'Maximum model space distance between geometric entities at asserted c
onnectivities');
#593=UNCERTAINTY_MEASURE_WITH_UNIT(LENGTH_MEASURE(0.01),#601,
'DISTANCE_ACCURACY_VALUE',
'Maximum model space distance between geometric entities at asserted c
onnectivities');
#594=UNCERTAINTY_MEASURE_WITH_UNIT(LENGTH_MEASURE(0.01),#601,
'DISTANCE_ACCURACY_VALUE',
'Maximum model space distance between geometric entities at asserted c
onnectivities');
#595=UNCERTAINTY_MEASURE_WITH_UNIT(LENGTH_MEASURE(0.01),#601,
'DISTANCE_ACCURACY_VALUE',
'Maximum model space distance between geometric entities at asserted c
onnectivities');
#596=(
GEOMETRIC_REPRESENTATION_CONTEXT(3)
GLOBAL_UNCERTAINTY_ASSIGNED_CONTEXT((#591))
GLOBAL_UNIT_ASSIGNED_CONTEXT((#601,#603,#604))
REPRESENTATION_CONTEXT('','3D')
);
#597=(
GEOMETRIC_REPRESENTATION_CONTEXT(3)
GLOBAL_UNCERTAINTY_ASSIGNED_CONTEXT((#592))
GLOBAL_UNIT_ASSIGNED_CONTEXT((#601,#603,#604))
REPRESENTATION_CONTEXT('','3D')
);
#598=(
GEOMETRIC_REPRESENTATION_CONTEXT(3)
GLOBAL_UNCERTAINTY_ASSIGNED_CONTEXT((#593))
GLOBAL_UNIT_ASSIGNED_CONTEXT((#601,#603,#604))
REPRESENTATION_CONTEXT('','3D')
);
#599=(
GEOMETRIC_REPRESENTATION_CONTEXT(3)
GLOBAL_UNCERTAINTY_ASSIGNED_CONTEXT((#594))
GLOBAL_UNIT_ASSIGNED_CONTEXT((#601,#603,#604))
REPRESENTATION_CONTEXT('','3D')
);
#600=(
GEOMETRIC_REPRESENTATION_CONTEXT(3)
GLOBAL_UNCERTAINTY_ASSIGNED_CONTEXT((#595))
GLOBAL_UNIT_ASSIGNED_CONTEXT((#601,#603,#604))
REPRESENTATION_CONTEXT('','3D')
);
#601=(
LENGTH_UNIT()
NAMED_UNIT(*)
SI_UNIT(.MILLI.,.METRE.)
);
#602=(
LENGTH_UNIT()
NAMED_UNIT(*)
SI_UNIT(.CENTI.,.METRE.)
);
#603=(
NAMED_UNIT(*)
PLANE_ANGLE_UNIT()
SI_UNIT($,.RADIAN.)
);
#604=(
NAMED_UNIT(*)
SI_UNIT($,.STERADIAN.)
SOLID_ANGLE_UNIT()
);
#605=SHAPE_DEFINITION_REPRESENTATION(#609,#616);
#606=SHAPE_DEFINITION_REPRESENTATION(#610,#617);
#607=SHAPE_DEFINITION_REPRESENTATION(#611,#618);
#608=SHAPE_DEFINITION_REPRESENTATION(#612,#619);
#609=PRODUCT_DEFINITION_SHAPE('',$,#621);
#610=PRODUCT_DEFINITION_SHAPE('',$,#622);
#611=PRODUCT_DEFINITION_SHAPE('',$,#623);
#612=PRODUCT_DEFINITION_SHAPE('',$,#624);
#613=PRODUCT_DEFINITION_SHAPE($,$,#20);
#614=PRODUCT_DEFINITION_SHAPE($,$,#21);
#615=PRODUCT_DEFINITION_SHAPE($,$,#22);
#616=SHAPE_REPRESENTATION('',(#345,#394,#395,#396),#596);
#617=SHAPE_REPRESENTATION('',(#346),#597);
#618=SHAPE_REPRESENTATION('',(#370),#598);
#619=SHAPE_REPRESENTATION('',(#386),#599);
#620=PRODUCT_DEFINITION_CONTEXT('part definition',#634,'design');
#621=PRODUCT_DEFINITION('GM16404','GM16404',#625,#620);
#622=PRODUCT_DEFINITION('E0120596','E0120596',#626,#620);
#623=PRODUCT_DEFINITION('E0120597','E0120597',#627,#620);
#624=PRODUCT_DEFINITION('E0120595','E0120595',#628,#620);
#625=PRODUCT_DEFINITION_FORMATION('-',$,#636);
#626=PRODUCT_DEFINITION_FORMATION('-',$,#637);
#627=PRODUCT_DEFINITION_FORMATION('-',$,#638);
#628=PRODUCT_DEFINITION_FORMATION('-',$,#639);
#629=PRODUCT_RELATED_PRODUCT_CATEGORY('GM16404','GM16404',(#636));
#630=PRODUCT_RELATED_PRODUCT_CATEGORY('E0120596','E0120596',(#637));
#631=PRODUCT_RELATED_PRODUCT_CATEGORY('E0120597','E0120597',(#638));
#632=PRODUCT_RELATED_PRODUCT_CATEGORY('E0120595','E0120595',(#639));
#633=APPLICATION_PROTOCOL_DEFINITION('international standard',
'automotive_design',2009,#634);
#634=APPLICATION_CONTEXT(
'Core Data for Automotive Mechanical Design Process');
#635=PRODUCT_CONTEXT('part definition',#634,'mechanical');
#636=PRODUCT('GM16404','GM16404',$,(#635));
#637=PRODUCT('E0120596','E0120596',$,(#635));
#638=PRODUCT('E0120597','E0120597',$,(#635));
#639=PRODUCT('E0120595','E0120595',$,(#635));
ENDSEC;
END-ISO-10303-21;
