ISO-10303-21;
HEADER;
/* Generated by software containing ST-Developer
 * from STEP Tools, Inc. (www.steptools.com) 
 */

FILE_DESCRIPTION(
/* description */ (''),
/* implementation_level */ '2;1');

FILE_NAME(
/* name */ 
'C:\\Workspace\\Documents\\Manufacturing\\33\\E\\Potmagneten\\GM16405\\
GM16405.stp',
/* time_stamp */ '2019-09-25T08:06:16+02:00',
/* author */ ('PV'),
/* organization */ (''),
/* preprocessor_version */ 'ST-DEVELOPER v17.2',
/* originating_system */ 'Autodesk Inventor 2019',
/* authorisation */ '');

FILE_SCHEMA (('AUTOMOTIVE_DESIGN { 1 0 10303 214 3 1 1 }'));
ENDSEC;

DATA;
#10=MECHANICAL_DESIGN_GEOMETRIC_PRESENTATION_REPRESENTATION('',(#29,#30,
#31,#32,#33,#34),#618);
#11=ITEM_DEFINED_TRANSFORMATION($,$,#364,#412);
#12=ITEM_DEFINED_TRANSFORMATION($,$,#388,#413);
#13=ITEM_DEFINED_TRANSFORMATION($,$,#404,#414);
#14=(
REPRESENTATION_RELATIONSHIP($,$,#635,#634)
REPRESENTATION_RELATIONSHIP_WITH_TRANSFORMATION(#11)
SHAPE_REPRESENTATION_RELATIONSHIP()
);
#15=(
REPRESENTATION_RELATIONSHIP($,$,#636,#634)
REPRESENTATION_RELATIONSHIP_WITH_TRANSFORMATION(#12)
SHAPE_REPRESENTATION_RELATIONSHIP()
);
#16=(
REPRESENTATION_RELATIONSHIP($,$,#637,#634)
REPRESENTATION_RELATIONSHIP_WITH_TRANSFORMATION(#13)
SHAPE_REPRESENTATION_RELATIONSHIP()
);
#17=CONTEXT_DEPENDENT_SHAPE_REPRESENTATION(#14,#631);
#18=CONTEXT_DEPENDENT_SHAPE_REPRESENTATION(#15,#632);
#19=CONTEXT_DEPENDENT_SHAPE_REPRESENTATION(#16,#633);
#20=NEXT_ASSEMBLY_USAGE_OCCURRENCE('E0120607/- - OUTER HOUSING:1',
'E0120607/- - OUTER HOUSING:1','E0120607/- - OUTER HOUSING:1',#639,#640,
'E0120607/- - OUTER HOUSING:1');
#21=NEXT_ASSEMBLY_USAGE_OCCURRENCE('E0120608/- - GLUE:1',
'E0120608/- - GLUE:1','E0120608/- - GLUE:1',#639,#641,
'E0120608/- - GLUE:1');
#22=NEXT_ASSEMBLY_USAGE_OCCURRENCE('E0120609/- - MAGNET:1',
'E0120609/- - MAGNET:1','E0120609/- - MAGNET:1',#639,#642,
'E0120609/- - MAGNET:1');
#23=SHAPE_REPRESENTATION_RELATIONSHIP('SRR','None',#635,#26);
#24=SHAPE_REPRESENTATION_RELATIONSHIP('SRR','None',#636,#27);
#25=SHAPE_REPRESENTATION_RELATIONSHIP('SRR','None',#637,#28);
#26=ADVANCED_BREP_SHAPE_REPRESENTATION('',(#35),#615);
#27=ADVANCED_BREP_SHAPE_REPRESENTATION('',(#36),#616);
#28=ADVANCED_BREP_SHAPE_REPRESENTATION('',(#37),#617);
#29=STYLED_ITEM('',(#312),#35);
#30=STYLED_ITEM('',(#313),#36);
#31=STYLED_ITEM('',(#314),#272);
#32=STYLED_ITEM('',(#314),#273);
#33=STYLED_ITEM('',(#314),#274);
#34=STYLED_ITEM('',(#312),#37);
#35=MANIFOLD_SOLID_BREP('Solid2',#275);
#36=MANIFOLD_SOLID_BREP('Solid2',#276);
#37=MANIFOLD_SOLID_BREP('Solid2',#277);
#38=TOROIDAL_SURFACE('',#374,10.8,0.5);
#39=TOROIDAL_SURFACE('',#382,10.5,2.);
#40=TOROIDAL_SURFACE('',#389,10.8,0.500000000000002);
#41=LINE('',#537,#46);
#42=LINE('',#564,#47);
#43=LINE('',#585,#48);
#44=LINE('',#592,#49);
#45=LINE('',#604,#50);
#46=VECTOR('',#431,11.3);
#47=VECTOR('',#466,12.5);
#48=VECTOR('',#491,11.3);
#49=VECTOR('',#500,10.8);
#50=VECTOR('',#515,10.8);
#51=CYLINDRICAL_SURFACE('',#370,11.3);
#52=CYLINDRICAL_SURFACE('',#387,12.5);
#53=CYLINDRICAL_SURFACE('',#397,11.3);
#54=CYLINDRICAL_SURFACE('',#403,10.8);
#55=CYLINDRICAL_SURFACE('',#408,10.8);
#56=FACE_BOUND('',#73,.T.);
#57=FACE_BOUND('',#83,.T.);
#58=FACE_OUTER_BOUND('',#72,.T.);
#59=FACE_OUTER_BOUND('',#74,.T.);
#60=FACE_OUTER_BOUND('',#75,.T.);
#61=FACE_OUTER_BOUND('',#76,.T.);
#62=FACE_OUTER_BOUND('',#77,.T.);
#63=FACE_OUTER_BOUND('',#78,.T.);
#64=FACE_OUTER_BOUND('',#79,.T.);
#65=FACE_OUTER_BOUND('',#80,.T.);
#66=FACE_OUTER_BOUND('',#81,.T.);
#67=FACE_OUTER_BOUND('',#82,.T.);
#68=FACE_OUTER_BOUND('',#84,.T.);
#69=FACE_OUTER_BOUND('',#85,.T.);
#70=FACE_OUTER_BOUND('',#86,.T.);
#71=FACE_OUTER_BOUND('',#87,.T.);
#72=EDGE_LOOP('',(#183,#184));
#73=EDGE_LOOP('',(#185,#186));
#74=EDGE_LOOP('',(#187,#188,#189,#190,#191,#192,#193));
#75=EDGE_LOOP('',(#194,#195,#196,#197,#198,#199,#200));
#76=EDGE_LOOP('',(#201,#202));
#77=EDGE_LOOP('',(#203,#204));
#78=EDGE_LOOP('',(#205,#206,#207,#208,#209,#210,#211));
#79=EDGE_LOOP('',(#212,#213,#214,#215,#216,#217,#218));
#80=EDGE_LOOP('',(#219,#220,#221,#222,#223,#224,#225,#226));
#81=EDGE_LOOP('',(#227,#228,#229,#230,#231,#232,#233));
#82=EDGE_LOOP('',(#234,#235));
#83=EDGE_LOOP('',(#236,#237));
#84=EDGE_LOOP('',(#238,#239,#240,#241,#242,#243,#244));
#85=EDGE_LOOP('',(#245,#246));
#86=EDGE_LOOP('',(#247,#248,#249,#250,#251,#252));
#87=EDGE_LOOP('',(#253,#254));
#88=CIRCLE('',#366,12.5);
#89=CIRCLE('',#367,12.5);
#90=CIRCLE('',#368,11.3);
#91=CIRCLE('',#369,11.3);
#92=CIRCLE('',#371,11.3);
#93=CIRCLE('',#372,11.3);
#94=CIRCLE('',#373,11.3);
#95=CIRCLE('',#375,0.5);
#96=CIRCLE('',#376,10.8);
#97=CIRCLE('',#377,10.8);
#98=CIRCLE('',#380,10.5);
#99=CIRCLE('',#381,10.5);
#100=CIRCLE('',#383,12.5);
#101=CIRCLE('',#384,12.5);
#102=CIRCLE('',#385,2.);
#103=CIRCLE('',#386,12.5);
#104=CIRCLE('',#390,11.3);
#105=CIRCLE('',#391,11.3);
#106=CIRCLE('',#392,0.500000000000002);
#107=CIRCLE('',#393,10.8);
#108=CIRCLE('',#394,10.8);
#109=CIRCLE('',#395,10.8);
#110=CIRCLE('',#396,11.3);
#111=CIRCLE('',#398,11.3);
#112=CIRCLE('',#399,11.3);
#113=CIRCLE('',#401,10.8);
#114=CIRCLE('',#402,10.8);
#115=CIRCLE('',#406,10.8);
#116=CIRCLE('',#407,10.8);
#117=CIRCLE('',#409,10.8);
#118=CIRCLE('',#410,10.8);
#119=VERTEX_POINT('',#527);
#120=VERTEX_POINT('',#528);
#121=VERTEX_POINT('',#531);
#122=VERTEX_POINT('',#532);
#123=VERTEX_POINT('',#536);
#124=VERTEX_POINT('',#538);
#125=VERTEX_POINT('',#540);
#126=VERTEX_POINT('',#544);
#127=VERTEX_POINT('',#546);
#128=VERTEX_POINT('',#551);
#129=VERTEX_POINT('',#552);
#130=VERTEX_POINT('',#556);
#131=VERTEX_POINT('',#557);
#132=VERTEX_POINT('',#559);
#133=VERTEX_POINT('',#567);
#134=VERTEX_POINT('',#568);
#135=VERTEX_POINT('',#570);
#136=VERTEX_POINT('',#572);
#137=VERTEX_POINT('',#574);
#138=VERTEX_POINT('',#576);
#139=VERTEX_POINT('',#581);
#140=VERTEX_POINT('',#582);
#141=VERTEX_POINT('',#587);
#142=VERTEX_POINT('',#588);
#143=VERTEX_POINT('',#595);
#144=VERTEX_POINT('',#596);
#145=VERTEX_POINT('',#600);
#146=VERTEX_POINT('',#601);
#147=EDGE_CURVE('',#119,#120,#88,.T.);
#148=EDGE_CURVE('',#120,#119,#89,.T.);
#149=EDGE_CURVE('',#121,#122,#90,.T.);
#150=EDGE_CURVE('',#122,#121,#91,.T.);
#151=EDGE_CURVE('',#122,#123,#41,.T.);
#152=EDGE_CURVE('',#124,#123,#92,.T.);
#153=EDGE_CURVE('',#125,#124,#93,.T.);
#154=EDGE_CURVE('',#123,#125,#94,.T.);
#155=EDGE_CURVE('',#125,#126,#95,.T.);
#156=EDGE_CURVE('',#127,#126,#96,.T.);
#157=EDGE_CURVE('',#126,#127,#97,.T.);
#158=EDGE_CURVE('',#128,#129,#98,.T.);
#159=EDGE_CURVE('',#129,#128,#99,.T.);
#160=EDGE_CURVE('',#130,#131,#100,.T.);
#161=EDGE_CURVE('',#132,#130,#101,.T.);
#162=EDGE_CURVE('',#132,#129,#102,.T.);
#163=EDGE_CURVE('',#131,#132,#103,.T.);
#164=EDGE_CURVE('',#120,#131,#42,.T.);
#165=EDGE_CURVE('',#133,#134,#104,.T.);
#166=EDGE_CURVE('',#135,#133,#105,.T.);
#167=EDGE_CURVE('',#135,#136,#106,.T.);
#168=EDGE_CURVE('',#136,#137,#107,.T.);
#169=EDGE_CURVE('',#137,#138,#108,.T.);
#170=EDGE_CURVE('',#138,#136,#109,.T.);
#171=EDGE_CURVE('',#134,#135,#110,.T.);
#172=EDGE_CURVE('',#139,#140,#111,.T.);
#173=EDGE_CURVE('',#140,#139,#112,.T.);
#174=EDGE_CURVE('',#140,#134,#43,.T.);
#175=EDGE_CURVE('',#141,#142,#113,.T.);
#176=EDGE_CURVE('',#142,#141,#114,.T.);
#177=EDGE_CURVE('',#142,#138,#44,.T.);
#178=EDGE_CURVE('',#143,#144,#115,.T.);
#179=EDGE_CURVE('',#144,#143,#116,.T.);
#180=EDGE_CURVE('',#145,#146,#117,.T.);
#181=EDGE_CURVE('',#146,#145,#118,.T.);
#182=EDGE_CURVE('',#146,#144,#45,.T.);
#183=ORIENTED_EDGE('',*,*,#147,.T.);
#184=ORIENTED_EDGE('',*,*,#148,.T.);
#185=ORIENTED_EDGE('',*,*,#149,.F.);
#186=ORIENTED_EDGE('',*,*,#150,.F.);
#187=ORIENTED_EDGE('',*,*,#149,.T.);
#188=ORIENTED_EDGE('',*,*,#151,.T.);
#189=ORIENTED_EDGE('',*,*,#152,.F.);
#190=ORIENTED_EDGE('',*,*,#153,.F.);
#191=ORIENTED_EDGE('',*,*,#154,.F.);
#192=ORIENTED_EDGE('',*,*,#151,.F.);
#193=ORIENTED_EDGE('',*,*,#150,.T.);
#194=ORIENTED_EDGE('',*,*,#152,.T.);
#195=ORIENTED_EDGE('',*,*,#154,.T.);
#196=ORIENTED_EDGE('',*,*,#155,.T.);
#197=ORIENTED_EDGE('',*,*,#156,.F.);
#198=ORIENTED_EDGE('',*,*,#157,.F.);
#199=ORIENTED_EDGE('',*,*,#155,.F.);
#200=ORIENTED_EDGE('',*,*,#153,.T.);
#201=ORIENTED_EDGE('',*,*,#156,.T.);
#202=ORIENTED_EDGE('',*,*,#157,.T.);
#203=ORIENTED_EDGE('',*,*,#158,.F.);
#204=ORIENTED_EDGE('',*,*,#159,.F.);
#205=ORIENTED_EDGE('',*,*,#160,.F.);
#206=ORIENTED_EDGE('',*,*,#161,.F.);
#207=ORIENTED_EDGE('',*,*,#162,.T.);
#208=ORIENTED_EDGE('',*,*,#159,.T.);
#209=ORIENTED_EDGE('',*,*,#158,.T.);
#210=ORIENTED_EDGE('',*,*,#162,.F.);
#211=ORIENTED_EDGE('',*,*,#163,.F.);
#212=ORIENTED_EDGE('',*,*,#147,.F.);
#213=ORIENTED_EDGE('',*,*,#148,.F.);
#214=ORIENTED_EDGE('',*,*,#164,.T.);
#215=ORIENTED_EDGE('',*,*,#163,.T.);
#216=ORIENTED_EDGE('',*,*,#161,.T.);
#217=ORIENTED_EDGE('',*,*,#160,.T.);
#218=ORIENTED_EDGE('',*,*,#164,.F.);
#219=ORIENTED_EDGE('',*,*,#165,.F.);
#220=ORIENTED_EDGE('',*,*,#166,.F.);
#221=ORIENTED_EDGE('',*,*,#167,.T.);
#222=ORIENTED_EDGE('',*,*,#168,.T.);
#223=ORIENTED_EDGE('',*,*,#169,.T.);
#224=ORIENTED_EDGE('',*,*,#170,.T.);
#225=ORIENTED_EDGE('',*,*,#167,.F.);
#226=ORIENTED_EDGE('',*,*,#171,.F.);
#227=ORIENTED_EDGE('',*,*,#172,.F.);
#228=ORIENTED_EDGE('',*,*,#173,.F.);
#229=ORIENTED_EDGE('',*,*,#174,.T.);
#230=ORIENTED_EDGE('',*,*,#171,.T.);
#231=ORIENTED_EDGE('',*,*,#166,.T.);
#232=ORIENTED_EDGE('',*,*,#165,.T.);
#233=ORIENTED_EDGE('',*,*,#174,.F.);
#234=ORIENTED_EDGE('',*,*,#172,.T.);
#235=ORIENTED_EDGE('',*,*,#173,.T.);
#236=ORIENTED_EDGE('',*,*,#175,.F.);
#237=ORIENTED_EDGE('',*,*,#176,.F.);
#238=ORIENTED_EDGE('',*,*,#175,.T.);
#239=ORIENTED_EDGE('',*,*,#177,.T.);
#240=ORIENTED_EDGE('',*,*,#169,.F.);
#241=ORIENTED_EDGE('',*,*,#168,.F.);
#242=ORIENTED_EDGE('',*,*,#170,.F.);
#243=ORIENTED_EDGE('',*,*,#177,.F.);
#244=ORIENTED_EDGE('',*,*,#176,.T.);
#245=ORIENTED_EDGE('',*,*,#178,.F.);
#246=ORIENTED_EDGE('',*,*,#179,.F.);
#247=ORIENTED_EDGE('',*,*,#180,.F.);
#248=ORIENTED_EDGE('',*,*,#181,.F.);
#249=ORIENTED_EDGE('',*,*,#182,.T.);
#250=ORIENTED_EDGE('',*,*,#179,.T.);
#251=ORIENTED_EDGE('',*,*,#178,.T.);
#252=ORIENTED_EDGE('',*,*,#182,.F.);
#253=ORIENTED_EDGE('',*,*,#180,.T.);
#254=ORIENTED_EDGE('',*,*,#181,.T.);
#255=PLANE('',#365);
#256=PLANE('',#378);
#257=PLANE('',#379);
#258=PLANE('',#400);
#259=PLANE('',#405);
#260=PLANE('',#411);
#261=ADVANCED_FACE('',(#58,#56),#255,.T.);
#262=ADVANCED_FACE('',(#59),#51,.F.);
#263=ADVANCED_FACE('',(#60),#38,.F.);
#264=ADVANCED_FACE('',(#61),#256,.T.);
#265=ADVANCED_FACE('',(#62),#257,.T.);
#266=ADVANCED_FACE('',(#63),#39,.T.);
#267=ADVANCED_FACE('',(#64),#52,.T.);
#268=ADVANCED_FACE('',(#65),#40,.T.);
#269=ADVANCED_FACE('',(#66),#53,.T.);
#270=ADVANCED_FACE('',(#67,#57),#258,.T.);
#271=ADVANCED_FACE('',(#68),#54,.F.);
#272=ADVANCED_FACE('',(#69),#259,.T.);
#273=ADVANCED_FACE('',(#70),#55,.T.);
#274=ADVANCED_FACE('',(#71),#260,.T.);
#275=CLOSED_SHELL('',(#261,#262,#263,#264,#265,#266,#267));
#276=CLOSED_SHELL('',(#268,#269,#270,#271));
#277=CLOSED_SHELL('',(#272,#273,#274));
#278=DERIVED_UNIT_ELEMENT(#284,1.);
#279=DERIVED_UNIT_ELEMENT(#620,3.);
#280=DERIVED_UNIT_ELEMENT(#284,1.);
#281=DERIVED_UNIT_ELEMENT(#620,3.);
#282=DERIVED_UNIT_ELEMENT(#284,1.);
#283=DERIVED_UNIT_ELEMENT(#620,3.);
#284=(
MASS_UNIT()
NAMED_UNIT(*)
SI_UNIT($,.GRAM.)
);
#285=DERIVED_UNIT((#278,#279));
#286=DERIVED_UNIT((#280,#281));
#287=DERIVED_UNIT((#282,#283));
#288=MEASURE_REPRESENTATION_ITEM('density measure',
POSITIVE_RATIO_MEASURE(7.85),#285);
#289=MEASURE_REPRESENTATION_ITEM('density measure',
POSITIVE_RATIO_MEASURE(1.),#286);
#290=MEASURE_REPRESENTATION_ITEM('density measure',
POSITIVE_RATIO_MEASURE(7.85),#287);
#291=PROPERTY_DEFINITION_REPRESENTATION(#306,#297);
#292=PROPERTY_DEFINITION_REPRESENTATION(#307,#298);
#293=PROPERTY_DEFINITION_REPRESENTATION(#308,#299);
#294=PROPERTY_DEFINITION_REPRESENTATION(#309,#300);
#295=PROPERTY_DEFINITION_REPRESENTATION(#310,#301);
#296=PROPERTY_DEFINITION_REPRESENTATION(#311,#302);
#297=REPRESENTATION('material name',(#303),#615);
#298=REPRESENTATION('density',(#288),#615);
#299=REPRESENTATION('material name',(#304),#616);
#300=REPRESENTATION('density',(#289),#616);
#301=REPRESENTATION('material name',(#305),#617);
#302=REPRESENTATION('density',(#290),#617);
#303=DESCRIPTIVE_REPRESENTATION_ITEM('Steel, Carbon','Steel, Carbon');
#304=DESCRIPTIVE_REPRESENTATION_ITEM('PE','PE');
#305=DESCRIPTIVE_REPRESENTATION_ITEM('Steel, Carbon','Steel, Carbon');
#306=PROPERTY_DEFINITION('material property','material name',#640);
#307=PROPERTY_DEFINITION('material property','density of part',#640);
#308=PROPERTY_DEFINITION('material property','material name',#641);
#309=PROPERTY_DEFINITION('material property','density of part',#641);
#310=PROPERTY_DEFINITION('material property','material name',#642);
#311=PROPERTY_DEFINITION('material property','density of part',#642);
#312=PRESENTATION_STYLE_ASSIGNMENT((#315));
#313=PRESENTATION_STYLE_ASSIGNMENT((#316));
#314=PRESENTATION_STYLE_ASSIGNMENT((#317));
#315=SURFACE_STYLE_USAGE(.BOTH.,#324);
#316=SURFACE_STYLE_USAGE(.BOTH.,#325);
#317=SURFACE_STYLE_USAGE(.BOTH.,#326);
#318=SURFACE_STYLE_RENDERING_WITH_PROPERTIES($,#336,(#321));
#319=SURFACE_STYLE_RENDERING_WITH_PROPERTIES($,#337,(#322));
#320=SURFACE_STYLE_RENDERING_WITH_PROPERTIES($,#338,(#323));
#321=SURFACE_STYLE_TRANSPARENT(0.);
#322=SURFACE_STYLE_TRANSPARENT(0.);
#323=SURFACE_STYLE_TRANSPARENT(0.);
#324=SURFACE_SIDE_STYLE('',(#327,#318));
#325=SURFACE_SIDE_STYLE('',(#328,#319));
#326=SURFACE_SIDE_STYLE('',(#329,#320));
#327=SURFACE_STYLE_FILL_AREA(#330);
#328=SURFACE_STYLE_FILL_AREA(#331);
#329=SURFACE_STYLE_FILL_AREA(#332);
#330=FILL_AREA_STYLE('',(#333));
#331=FILL_AREA_STYLE('',(#334));
#332=FILL_AREA_STYLE('',(#335));
#333=FILL_AREA_STYLE_COLOUR('',#336);
#334=FILL_AREA_STYLE_COLOUR('',#337);
#335=FILL_AREA_STYLE_COLOUR('',#338);
#336=COLOUR_RGB('',0.745098039215686,0.737254901960784,0.729411764705882);
#337=COLOUR_RGB('',0.,0.,0.);
#338=COLOUR_RGB('',0.501960784313725,1.,0.501960784313725);
#339=DATE_TIME_ROLE('creation_date');
#340=DATE_TIME_ROLE('creation_date');
#341=DATE_TIME_ROLE('creation_date');
#342=DATE_TIME_ROLE('creation_date');
#343=APPLIED_DATE_AND_TIME_ASSIGNMENT(#347,#339,(#639));
#344=APPLIED_DATE_AND_TIME_ASSIGNMENT(#348,#340,(#640));
#345=APPLIED_DATE_AND_TIME_ASSIGNMENT(#349,#341,(#641));
#346=APPLIED_DATE_AND_TIME_ASSIGNMENT(#350,#342,(#642));
#347=DATE_AND_TIME(#351,#355);
#348=DATE_AND_TIME(#352,#356);
#349=DATE_AND_TIME(#353,#357);
#350=DATE_AND_TIME(#354,#358);
#351=CALENDAR_DATE(2019,8,8);
#352=CALENDAR_DATE(2019,8,8);
#353=CALENDAR_DATE(2019,8,8);
#354=CALENDAR_DATE(2019,8,8);
#355=LOCAL_TIME(22,0,0.,#359);
#356=LOCAL_TIME(22,0,0.,#360);
#357=LOCAL_TIME(22,0,0.,#361);
#358=LOCAL_TIME(22,0,0.,#362);
#359=COORDINATED_UNIVERSAL_TIME_OFFSET(0,0,.BEHIND.);
#360=COORDINATED_UNIVERSAL_TIME_OFFSET(0,0,.BEHIND.);
#361=COORDINATED_UNIVERSAL_TIME_OFFSET(0,0,.BEHIND.);
#362=COORDINATED_UNIVERSAL_TIME_OFFSET(0,0,.BEHIND.);
#363=AXIS2_PLACEMENT_3D('placement',#524,#415,#416);
#364=AXIS2_PLACEMENT_3D('placement',#525,#417,#418);
#365=AXIS2_PLACEMENT_3D('',#526,#419,#420);
#366=AXIS2_PLACEMENT_3D('',#529,#421,#422);
#367=AXIS2_PLACEMENT_3D('',#530,#423,#424);
#368=AXIS2_PLACEMENT_3D('',#533,#425,#426);
#369=AXIS2_PLACEMENT_3D('',#534,#427,#428);
#370=AXIS2_PLACEMENT_3D('',#535,#429,#430);
#371=AXIS2_PLACEMENT_3D('',#539,#432,#433);
#372=AXIS2_PLACEMENT_3D('',#541,#434,#435);
#373=AXIS2_PLACEMENT_3D('',#542,#436,#437);
#374=AXIS2_PLACEMENT_3D('',#543,#438,#439);
#375=AXIS2_PLACEMENT_3D('',#545,#440,#441);
#376=AXIS2_PLACEMENT_3D('',#547,#442,#443);
#377=AXIS2_PLACEMENT_3D('',#548,#444,#445);
#378=AXIS2_PLACEMENT_3D('',#549,#446,#447);
#379=AXIS2_PLACEMENT_3D('',#550,#448,#449);
#380=AXIS2_PLACEMENT_3D('',#553,#450,#451);
#381=AXIS2_PLACEMENT_3D('',#554,#452,#453);
#382=AXIS2_PLACEMENT_3D('',#555,#454,#455);
#383=AXIS2_PLACEMENT_3D('',#558,#456,#457);
#384=AXIS2_PLACEMENT_3D('',#560,#458,#459);
#385=AXIS2_PLACEMENT_3D('',#561,#460,#461);
#386=AXIS2_PLACEMENT_3D('',#562,#462,#463);
#387=AXIS2_PLACEMENT_3D('',#563,#464,#465);
#388=AXIS2_PLACEMENT_3D('placement',#565,#467,#468);
#389=AXIS2_PLACEMENT_3D('',#566,#469,#470);
#390=AXIS2_PLACEMENT_3D('',#569,#471,#472);
#391=AXIS2_PLACEMENT_3D('',#571,#473,#474);
#392=AXIS2_PLACEMENT_3D('',#573,#475,#476);
#393=AXIS2_PLACEMENT_3D('',#575,#477,#478);
#394=AXIS2_PLACEMENT_3D('',#577,#479,#480);
#395=AXIS2_PLACEMENT_3D('',#578,#481,#482);
#396=AXIS2_PLACEMENT_3D('',#579,#483,#484);
#397=AXIS2_PLACEMENT_3D('',#580,#485,#486);
#398=AXIS2_PLACEMENT_3D('',#583,#487,#488);
#399=AXIS2_PLACEMENT_3D('',#584,#489,#490);
#400=AXIS2_PLACEMENT_3D('',#586,#492,#493);
#401=AXIS2_PLACEMENT_3D('',#589,#494,#495);
#402=AXIS2_PLACEMENT_3D('',#590,#496,#497);
#403=AXIS2_PLACEMENT_3D('',#591,#498,#499);
#404=AXIS2_PLACEMENT_3D('placement',#593,#501,#502);
#405=AXIS2_PLACEMENT_3D('',#594,#503,#504);
#406=AXIS2_PLACEMENT_3D('',#597,#505,#506);
#407=AXIS2_PLACEMENT_3D('',#598,#507,#508);
#408=AXIS2_PLACEMENT_3D('',#599,#509,#510);
#409=AXIS2_PLACEMENT_3D('',#602,#511,#512);
#410=AXIS2_PLACEMENT_3D('',#603,#513,#514);
#411=AXIS2_PLACEMENT_3D('',#605,#516,#517);
#412=AXIS2_PLACEMENT_3D('',#606,#518,#519);
#413=AXIS2_PLACEMENT_3D('',#607,#520,#521);
#414=AXIS2_PLACEMENT_3D('',#608,#522,#523);
#415=DIRECTION('axis',(0.,0.,1.));
#416=DIRECTION('refdir',(1.,0.,0.));
#417=DIRECTION('axis',(0.,0.,1.));
#418=DIRECTION('refdir',(1.,0.,0.));
#419=DIRECTION('center_axis',(0.,1.,0.));
#420=DIRECTION('ref_axis',(0.,0.,1.));
#421=DIRECTION('center_axis',(0.,1.,0.));
#422=DIRECTION('ref_axis',(1.,0.,0.));
#423=DIRECTION('center_axis',(0.,1.,0.));
#424=DIRECTION('ref_axis',(1.,0.,0.));
#425=DIRECTION('center_axis',(0.,1.,0.));
#426=DIRECTION('ref_axis',(1.,0.,0.));
#427=DIRECTION('center_axis',(0.,1.,0.));
#428=DIRECTION('ref_axis',(1.,0.,0.));
#429=DIRECTION('center_axis',(0.,1.,0.));
#430=DIRECTION('ref_axis',(-1.,0.,0.));
#431=DIRECTION('',(0.,-1.,0.));
#432=DIRECTION('center_axis',(0.,1.,0.));
#433=DIRECTION('ref_axis',(1.,0.,0.));
#434=DIRECTION('center_axis',(0.,1.,0.));
#435=DIRECTION('ref_axis',(1.,0.,0.));
#436=DIRECTION('center_axis',(0.,1.,0.));
#437=DIRECTION('ref_axis',(1.,0.,0.));
#438=DIRECTION('center_axis',(0.,1.,0.));
#439=DIRECTION('ref_axis',(0.,0.,1.));
#440=DIRECTION('center_axis',(-1.,0.,1.22464679914735E-16));
#441=DIRECTION('ref_axis',(-1.22464679914735E-16,0.,-1.));
#442=DIRECTION('center_axis',(0.,1.,0.));
#443=DIRECTION('ref_axis',(1.,0.,0.));
#444=DIRECTION('center_axis',(0.,1.,0.));
#445=DIRECTION('ref_axis',(1.,0.,0.));
#446=DIRECTION('center_axis',(0.,1.,0.));
#447=DIRECTION('ref_axis',(0.,0.,1.));
#448=DIRECTION('center_axis',(0.,-1.,0.));
#449=DIRECTION('ref_axis',(0.,0.,-1.));
#450=DIRECTION('center_axis',(0.,1.,0.));
#451=DIRECTION('ref_axis',(1.,0.,0.));
#452=DIRECTION('center_axis',(0.,1.,0.));
#453=DIRECTION('ref_axis',(1.,0.,0.));
#454=DIRECTION('center_axis',(0.,1.,0.));
#455=DIRECTION('ref_axis',(0.,0.,1.));
#456=DIRECTION('center_axis',(0.,1.,0.));
#457=DIRECTION('ref_axis',(1.,0.,0.));
#458=DIRECTION('center_axis',(0.,1.,0.));
#459=DIRECTION('ref_axis',(1.,0.,0.));
#460=DIRECTION('center_axis',(-1.,0.,1.22464679914735E-16));
#461=DIRECTION('ref_axis',(-1.22464679914735E-16,0.,-1.));
#462=DIRECTION('center_axis',(0.,1.,0.));
#463=DIRECTION('ref_axis',(1.,0.,0.));
#464=DIRECTION('center_axis',(0.,1.,0.));
#465=DIRECTION('ref_axis',(-1.,0.,0.));
#466=DIRECTION('',(0.,-1.,0.));
#467=DIRECTION('axis',(0.,0.,1.));
#468=DIRECTION('refdir',(1.,0.,0.));
#469=DIRECTION('center_axis',(0.,1.,0.));
#470=DIRECTION('ref_axis',(0.,0.,1.));
#471=DIRECTION('center_axis',(0.,1.,0.));
#472=DIRECTION('ref_axis',(1.,0.,0.));
#473=DIRECTION('center_axis',(0.,1.,0.));
#474=DIRECTION('ref_axis',(1.,0.,0.));
#475=DIRECTION('center_axis',(-1.,0.,1.22464679914735E-16));
#476=DIRECTION('ref_axis',(-1.22464679914735E-16,0.,-1.));
#477=DIRECTION('center_axis',(0.,1.,0.));
#478=DIRECTION('ref_axis',(1.,0.,0.));
#479=DIRECTION('center_axis',(0.,1.,0.));
#480=DIRECTION('ref_axis',(1.,0.,0.));
#481=DIRECTION('center_axis',(0.,1.,0.));
#482=DIRECTION('ref_axis',(1.,0.,0.));
#483=DIRECTION('center_axis',(0.,1.,0.));
#484=DIRECTION('ref_axis',(1.,0.,0.));
#485=DIRECTION('center_axis',(0.,1.,0.));
#486=DIRECTION('ref_axis',(-1.,0.,0.));
#487=DIRECTION('center_axis',(0.,1.,0.));
#488=DIRECTION('ref_axis',(1.,0.,0.));
#489=DIRECTION('center_axis',(0.,1.,0.));
#490=DIRECTION('ref_axis',(1.,0.,0.));
#491=DIRECTION('',(0.,-1.,0.));
#492=DIRECTION('center_axis',(0.,1.,0.));
#493=DIRECTION('ref_axis',(0.,0.,1.));
#494=DIRECTION('center_axis',(0.,1.,0.));
#495=DIRECTION('ref_axis',(1.,0.,0.));
#496=DIRECTION('center_axis',(0.,1.,0.));
#497=DIRECTION('ref_axis',(1.,0.,0.));
#498=DIRECTION('center_axis',(0.,1.,0.));
#499=DIRECTION('ref_axis',(-1.,0.,0.));
#500=DIRECTION('',(0.,-1.,0.));
#501=DIRECTION('axis',(0.,0.,1.));
#502=DIRECTION('refdir',(1.,0.,0.));
#503=DIRECTION('center_axis',(1.,0.,0.));
#504=DIRECTION('ref_axis',(0.,0.,-1.));
#505=DIRECTION('center_axis',(-1.,0.,0.));
#506=DIRECTION('ref_axis',(0.,0.,1.));
#507=DIRECTION('center_axis',(-1.,0.,0.));
#508=DIRECTION('ref_axis',(0.,0.,1.));
#509=DIRECTION('center_axis',(-1.,0.,0.));
#510=DIRECTION('ref_axis',(0.,0.,1.));
#511=DIRECTION('center_axis',(-1.,0.,0.));
#512=DIRECTION('ref_axis',(0.,0.,1.));
#513=DIRECTION('center_axis',(-1.,0.,0.));
#514=DIRECTION('ref_axis',(0.,0.,1.));
#515=DIRECTION('',(1.,0.,0.));
#516=DIRECTION('center_axis',(-1.,0.,0.));
#517=DIRECTION('ref_axis',(0.,0.,1.));
#518=DIRECTION('',(0.,0.,1.));
#519=DIRECTION('',(1.,0.,0.));
#520=DIRECTION('',(-0.20777609845556,0.,0.978176411957774));
#521=DIRECTION('',(0.978176411957774,0.,0.20777609845556));
#522=DIRECTION('',(-0.219266592432449,0.,0.97566498422515));
#523=DIRECTION('',(0.,-1.,0.));
#524=CARTESIAN_POINT('',(0.,0.,0.));
#525=CARTESIAN_POINT('',(0.,0.,0.));
#526=CARTESIAN_POINT('Origin',(-11.3,7.,0.));
#527=CARTESIAN_POINT('',(-12.5,7.,0.));
#528=CARTESIAN_POINT('',(12.5,7.,-1.53080849893419E-15));
#529=CARTESIAN_POINT('Origin',(0.,7.,0.));
#530=CARTESIAN_POINT('Origin',(0.,7.,0.));
#531=CARTESIAN_POINT('',(-11.3,7.,0.));
#532=CARTESIAN_POINT('',(11.3,7.,-1.38385088303651E-15));
#533=CARTESIAN_POINT('Origin',(0.,7.,0.));
#534=CARTESIAN_POINT('Origin',(0.,7.,0.));
#535=CARTESIAN_POINT('Origin',(0.,4.35,0.));
#536=CARTESIAN_POINT('',(11.3,1.7,-1.38385088303651E-15));
#537=CARTESIAN_POINT('',(11.3,4.35,-1.38385088303651E-15));
#538=CARTESIAN_POINT('',(-11.3,1.7,0.));
#539=CARTESIAN_POINT('Origin',(0.,1.7,0.));
#540=CARTESIAN_POINT('',(-1.38385088303651E-15,1.7,-11.3));
#541=CARTESIAN_POINT('Origin',(0.,1.7,0.));
#542=CARTESIAN_POINT('Origin',(0.,1.7,0.));
#543=CARTESIAN_POINT('Origin',(0.,1.7,0.));
#544=CARTESIAN_POINT('',(-1.32261854307914E-15,1.2,-10.8));
#545=CARTESIAN_POINT('Origin',(-1.32261854307914E-15,1.7,-10.8));
#546=CARTESIAN_POINT('',(-10.8,1.2,0.));
#547=CARTESIAN_POINT('Origin',(0.,1.2,0.));
#548=CARTESIAN_POINT('Origin',(0.,1.2,0.));
#549=CARTESIAN_POINT('Origin',(0.,1.2,0.));
#550=CARTESIAN_POINT('Origin',(-10.5,-1.11022302462516E-15,0.));
#551=CARTESIAN_POINT('',(-10.5,-1.11022302462516E-15,0.));
#552=CARTESIAN_POINT('',(-1.28587913910472E-15,-1.11022302462516E-15,-10.5));
#553=CARTESIAN_POINT('Origin',(0.,-1.11022302462516E-15,0.));
#554=CARTESIAN_POINT('Origin',(0.,-1.11022302462516E-15,0.));
#555=CARTESIAN_POINT('Origin',(0.,2.,0.));
#556=CARTESIAN_POINT('',(-12.5,2.,0.));
#557=CARTESIAN_POINT('',(12.5,2.,-1.53080849893419E-15));
#558=CARTESIAN_POINT('Origin',(0.,2.,0.));
#559=CARTESIAN_POINT('',(-1.53080849893419E-15,2.,-12.5));
#560=CARTESIAN_POINT('Origin',(0.,2.,0.));
#561=CARTESIAN_POINT('Origin',(-1.28587913910472E-15,2.,-10.5));
#562=CARTESIAN_POINT('Origin',(0.,2.,0.));
#563=CARTESIAN_POINT('Origin',(0.,4.5,0.));
#564=CARTESIAN_POINT('',(12.5,4.5,-1.53080849893419E-15));
#565=CARTESIAN_POINT('',(0.,0.,0.));
#566=CARTESIAN_POINT('Origin',(0.,0.499999999999999,0.));
#567=CARTESIAN_POINT('',(-11.3,0.499999999999999,0.));
#568=CARTESIAN_POINT('',(11.3,0.499999999999999,-1.38385088303651E-15));
#569=CARTESIAN_POINT('Origin',(0.,0.499999999999999,0.));
#570=CARTESIAN_POINT('',(-1.38385088303651E-15,0.499999999999999,-11.3));
#571=CARTESIAN_POINT('Origin',(0.,0.499999999999999,0.));
#572=CARTESIAN_POINT('',(-1.32261854307914E-15,-1.11022302462516E-15,-10.8));
#573=CARTESIAN_POINT('Origin',(-1.32261854307914E-15,0.499999999999999,
-10.8));
#574=CARTESIAN_POINT('',(-10.8,-1.32261854307914E-15,0.));
#575=CARTESIAN_POINT('Origin',(0.,-1.11022302462516E-15,0.));
#576=CARTESIAN_POINT('',(10.8,-1.11022302462516E-15,-1.32261854307914E-15));
#577=CARTESIAN_POINT('Origin',(0.,-1.11022302462516E-15,0.));
#578=CARTESIAN_POINT('Origin',(0.,-1.11022302462516E-15,0.));
#579=CARTESIAN_POINT('Origin',(0.,0.499999999999999,0.));
#580=CARTESIAN_POINT('Origin',(0.,3.15,0.));
#581=CARTESIAN_POINT('',(-11.3,5.8,0.));
#582=CARTESIAN_POINT('',(11.3,5.8,-1.38385088303651E-15));
#583=CARTESIAN_POINT('Origin',(0.,5.8,0.));
#584=CARTESIAN_POINT('Origin',(0.,5.8,0.));
#585=CARTESIAN_POINT('',(11.3,3.15,-1.38385088303651E-15));
#586=CARTESIAN_POINT('Origin',(-10.8,5.8,0.));
#587=CARTESIAN_POINT('',(-10.8,5.8,0.));
#588=CARTESIAN_POINT('',(10.8,5.8,-1.32261854307914E-15));
#589=CARTESIAN_POINT('Origin',(0.,5.8,0.));
#590=CARTESIAN_POINT('Origin',(0.,5.8,0.));
#591=CARTESIAN_POINT('Origin',(0.,2.9,0.));
#592=CARTESIAN_POINT('',(10.8,2.9,-1.32261854307914E-15));
#593=CARTESIAN_POINT('',(0.,0.,0.));
#594=CARTESIAN_POINT('Origin',(0.,0.,10.8));
#595=CARTESIAN_POINT('',(0.,0.,10.8));
#596=CARTESIAN_POINT('',(0.,-1.32261854307914E-15,-10.8));
#597=CARTESIAN_POINT('Origin',(0.,0.,0.));
#598=CARTESIAN_POINT('Origin',(0.,0.,0.));
#599=CARTESIAN_POINT('Origin',(-2.9,0.,0.));
#600=CARTESIAN_POINT('',(-5.8,0.,10.8));
#601=CARTESIAN_POINT('',(-5.8,-1.32261854307914E-15,-10.8));
#602=CARTESIAN_POINT('Origin',(-5.8,0.,0.));
#603=CARTESIAN_POINT('Origin',(-5.8,0.,0.));
#604=CARTESIAN_POINT('',(-2.9,-1.32261854307914E-15,-10.8));
#605=CARTESIAN_POINT('Origin',(-5.8,0.,0.));
#606=CARTESIAN_POINT('',(0.,0.,0.));
#607=CARTESIAN_POINT('',(0.,1.2,0.));
#608=CARTESIAN_POINT('',(0.,1.2,0.));
#609=UNCERTAINTY_MEASURE_WITH_UNIT(LENGTH_MEASURE(0.01),#619,
'DISTANCE_ACCURACY_VALUE',
'Maximum model space distance between geometric entities at asserted c
onnectivities');
#610=UNCERTAINTY_MEASURE_WITH_UNIT(LENGTH_MEASURE(0.01),#619,
'DISTANCE_ACCURACY_VALUE',
'Maximum model space distance between geometric entities at asserted c
onnectivities');
#611=UNCERTAINTY_MEASURE_WITH_UNIT(LENGTH_MEASURE(0.01),#619,
'DISTANCE_ACCURACY_VALUE',
'Maximum model space distance between geometric entities at asserted c
onnectivities');
#612=UNCERTAINTY_MEASURE_WITH_UNIT(LENGTH_MEASURE(0.01),#619,
'DISTANCE_ACCURACY_VALUE',
'Maximum model space distance between geometric entities at asserted c
onnectivities');
#613=UNCERTAINTY_MEASURE_WITH_UNIT(LENGTH_MEASURE(0.01),#619,
'DISTANCE_ACCURACY_VALUE',
'Maximum model space distance between geometric entities at asserted c
onnectivities');
#614=(
GEOMETRIC_REPRESENTATION_CONTEXT(3)
GLOBAL_UNCERTAINTY_ASSIGNED_CONTEXT((#609))
GLOBAL_UNIT_ASSIGNED_CONTEXT((#619,#621,#622))
REPRESENTATION_CONTEXT('','3D')
);
#615=(
GEOMETRIC_REPRESENTATION_CONTEXT(3)
GLOBAL_UNCERTAINTY_ASSIGNED_CONTEXT((#610))
GLOBAL_UNIT_ASSIGNED_CONTEXT((#619,#621,#622))
REPRESENTATION_CONTEXT('','3D')
);
#616=(
GEOMETRIC_REPRESENTATION_CONTEXT(3)
GLOBAL_UNCERTAINTY_ASSIGNED_CONTEXT((#611))
GLOBAL_UNIT_ASSIGNED_CONTEXT((#619,#621,#622))
REPRESENTATION_CONTEXT('','3D')
);
#617=(
GEOMETRIC_REPRESENTATION_CONTEXT(3)
GLOBAL_UNCERTAINTY_ASSIGNED_CONTEXT((#612))
GLOBAL_UNIT_ASSIGNED_CONTEXT((#619,#621,#622))
REPRESENTATION_CONTEXT('','3D')
);
#618=(
GEOMETRIC_REPRESENTATION_CONTEXT(3)
GLOBAL_UNCERTAINTY_ASSIGNED_CONTEXT((#613))
GLOBAL_UNIT_ASSIGNED_CONTEXT((#619,#621,#622))
REPRESENTATION_CONTEXT('','3D')
);
#619=(
LENGTH_UNIT()
NAMED_UNIT(*)
SI_UNIT(.MILLI.,.METRE.)
);
#620=(
LENGTH_UNIT()
NAMED_UNIT(*)
SI_UNIT(.CENTI.,.METRE.)
);
#621=(
NAMED_UNIT(*)
PLANE_ANGLE_UNIT()
SI_UNIT($,.RADIAN.)
);
#622=(
NAMED_UNIT(*)
SI_UNIT($,.STERADIAN.)
SOLID_ANGLE_UNIT()
);
#623=SHAPE_DEFINITION_REPRESENTATION(#627,#634);
#624=SHAPE_DEFINITION_REPRESENTATION(#628,#635);
#625=SHAPE_DEFINITION_REPRESENTATION(#629,#636);
#626=SHAPE_DEFINITION_REPRESENTATION(#630,#637);
#627=PRODUCT_DEFINITION_SHAPE('',$,#639);
#628=PRODUCT_DEFINITION_SHAPE('',$,#640);
#629=PRODUCT_DEFINITION_SHAPE('',$,#641);
#630=PRODUCT_DEFINITION_SHAPE('',$,#642);
#631=PRODUCT_DEFINITION_SHAPE($,$,#20);
#632=PRODUCT_DEFINITION_SHAPE($,$,#21);
#633=PRODUCT_DEFINITION_SHAPE($,$,#22);
#634=SHAPE_REPRESENTATION('',(#363,#412,#413,#414),#614);
#635=SHAPE_REPRESENTATION('',(#364),#615);
#636=SHAPE_REPRESENTATION('',(#388),#616);
#637=SHAPE_REPRESENTATION('',(#404),#617);
#638=PRODUCT_DEFINITION_CONTEXT('part definition',#652,'design');
#639=PRODUCT_DEFINITION('GM16405','GM16405',#643,#638);
#640=PRODUCT_DEFINITION('E0120607','E0120607',#644,#638);
#641=PRODUCT_DEFINITION('E0120608','E0120608',#645,#638);
#642=PRODUCT_DEFINITION('E0120609','E0120609',#646,#638);
#643=PRODUCT_DEFINITION_FORMATION('-',$,#654);
#644=PRODUCT_DEFINITION_FORMATION('-',$,#655);
#645=PRODUCT_DEFINITION_FORMATION('-',$,#656);
#646=PRODUCT_DEFINITION_FORMATION('-',$,#657);
#647=PRODUCT_RELATED_PRODUCT_CATEGORY('GM16405','GM16405',(#654));
#648=PRODUCT_RELATED_PRODUCT_CATEGORY('E0120607','E0120607',(#655));
#649=PRODUCT_RELATED_PRODUCT_CATEGORY('E0120608','E0120608',(#656));
#650=PRODUCT_RELATED_PRODUCT_CATEGORY('E0120609','E0120609',(#657));
#651=APPLICATION_PROTOCOL_DEFINITION('international standard',
'automotive_design',2009,#652);
#652=APPLICATION_CONTEXT(
'Core Data for Automotive Mechanical Design Process');
#653=PRODUCT_CONTEXT('part definition',#652,'mechanical');
#654=PRODUCT('GM16405','GM16405',$,(#653));
#655=PRODUCT('E0120607','E0120607',$,(#653));
#656=PRODUCT('E0120608','E0120608',$,(#653));
#657=PRODUCT('E0120609','E0120609',$,(#653));
ENDSEC;
END-ISO-10303-21;
