ISO-10303-21;
HEADER;
/* Generated by software containing ST-Developer
 * from STEP Tools, Inc. (www.steptools.com) 
 */

FILE_DESCRIPTION(
/* description */ (''),
/* implementation_level */ '2;1');

FILE_NAME(
/* name */ 
'C:\\Workspace\\Documents\\Manufacturing\\33\\E\\Potmagneten\\GM16702\\
GM16702 -.stp',
/* time_stamp */ '2019-09-25T15:29:01+02:00',
/* author */ ('PV'),
/* organization */ (''),
/* preprocessor_version */ 'ST-DEVELOPER v17.2',
/* originating_system */ 'Autodesk Inventor 2019',
/* authorisation */ '');

FILE_SCHEMA (('AUTOMOTIVE_DESIGN { 1 0 10303 214 3 1 1 }'));
ENDSEC;

DATA;
#10=MECHANICAL_DESIGN_GEOMETRIC_PRESENTATION_REPRESENTATION('',(#29,#30,
#31,#32,#33,#34),#606);
#11=ITEM_DEFINED_TRANSFORMATION($,$,#366,#410);
#12=ITEM_DEFINED_TRANSFORMATION($,$,#395,#411);
#13=ITEM_DEFINED_TRANSFORMATION($,$,#401,#412);
#14=(
REPRESENTATION_RELATIONSHIP($,$,#623,#622)
REPRESENTATION_RELATIONSHIP_WITH_TRANSFORMATION(#11)
SHAPE_REPRESENTATION_RELATIONSHIP()
);
#15=(
REPRESENTATION_RELATIONSHIP($,$,#624,#622)
REPRESENTATION_RELATIONSHIP_WITH_TRANSFORMATION(#12)
SHAPE_REPRESENTATION_RELATIONSHIP()
);
#16=(
REPRESENTATION_RELATIONSHIP($,$,#625,#622)
REPRESENTATION_RELATIONSHIP_WITH_TRANSFORMATION(#13)
SHAPE_REPRESENTATION_RELATIONSHIP()
);
#17=CONTEXT_DEPENDENT_SHAPE_REPRESENTATION(#14,#619);
#18=CONTEXT_DEPENDENT_SHAPE_REPRESENTATION(#15,#620);
#19=CONTEXT_DEPENDENT_SHAPE_REPRESENTATION(#16,#621);
#20=NEXT_ASSEMBLY_USAGE_OCCURRENCE('E0122245/- - OUTER HOUSING:1',
'E0122245/- - OUTER HOUSING:1','E0122245/- - OUTER HOUSING:1',#627,#628,
'E0122245/- - OUTER HOUSING:1');
#21=NEXT_ASSEMBLY_USAGE_OCCURRENCE('E0122244/- - MAGNET:1',
'E0122244/- - MAGNET:1','E0122244/- - MAGNET:1',#627,#629,
'E0122244/- - MAGNET:1');
#22=NEXT_ASSEMBLY_USAGE_OCCURRENCE('E0122243/- - GLEU:1',
'E0122243/- - GLEU:1','E0122243/- - GLEU:1',#627,#630,
'E0122243/- - GLEU:1');
#23=SHAPE_REPRESENTATION_RELATIONSHIP('SRR','None',#623,#26);
#24=SHAPE_REPRESENTATION_RELATIONSHIP('SRR','None',#624,#27);
#25=SHAPE_REPRESENTATION_RELATIONSHIP('SRR','None',#625,#28);
#26=ADVANCED_BREP_SHAPE_REPRESENTATION('',(#35),#603);
#27=ADVANCED_BREP_SHAPE_REPRESENTATION('',(#36),#604);
#28=ADVANCED_BREP_SHAPE_REPRESENTATION('',(#37),#605);
#29=STYLED_ITEM('',(#314),#35);
#30=STYLED_ITEM('',(#315),#270);
#31=STYLED_ITEM('',(#315),#271);
#32=STYLED_ITEM('',(#315),#272);
#33=STYLED_ITEM('',(#314),#36);
#34=STYLED_ITEM('',(#316),#37);
#35=MANIFOLD_SOLID_BREP('Solid2',#277);
#36=MANIFOLD_SOLID_BREP('Solid2',#278);
#37=MANIFOLD_SOLID_BREP('Solid2',#279);
#38=TOROIDAL_SURFACE('',#393,1.8,0.300000000000001);
#39=FACE_BOUND('',#81,.T.);
#40=FACE_BOUND('',#84,.T.);
#41=FACE_BOUND('',#94,.T.);
#42=FACE_BOUND('',#96,.T.);
#43=CYLINDRICAL_SURFACE('',#372,1.5);
#44=CYLINDRICAL_SURFACE('',#380,6.5);
#45=CYLINDRICAL_SURFACE('',#390,5.8);
#46=CYLINDRICAL_SURFACE('',#396,5.5);
#47=CYLINDRICAL_SURFACE('',#402,5.5);
#48=CYLINDRICAL_SURFACE('',#405,5.8);
#49=PLANE('',#371);
#50=PLANE('',#383);
#51=PLANE('',#388);
#52=PLANE('',#392);
#53=PLANE('',#399);
#54=PLANE('',#400);
#55=PLANE('',#408);
#56=PLANE('',#409);
#57=FACE_OUTER_BOUND('',#75,.T.);
#58=FACE_OUTER_BOUND('',#76,.T.);
#59=FACE_OUTER_BOUND('',#77,.T.);
#60=FACE_OUTER_BOUND('',#78,.T.);
#61=FACE_OUTER_BOUND('',#79,.T.);
#62=FACE_OUTER_BOUND('',#80,.T.);
#63=FACE_OUTER_BOUND('',#82,.T.);
#64=FACE_OUTER_BOUND('',#83,.T.);
#65=FACE_OUTER_BOUND('',#85,.T.);
#66=FACE_OUTER_BOUND('',#86,.T.);
#67=FACE_OUTER_BOUND('',#87,.T.);
#68=FACE_OUTER_BOUND('',#88,.T.);
#69=FACE_OUTER_BOUND('',#89,.T.);
#70=FACE_OUTER_BOUND('',#90,.T.);
#71=FACE_OUTER_BOUND('',#91,.T.);
#72=FACE_OUTER_BOUND('',#92,.T.);
#73=FACE_OUTER_BOUND('',#93,.T.);
#74=FACE_OUTER_BOUND('',#95,.T.);
#75=EDGE_LOOP('',(#192,#193,#194,#195,#196));
#76=EDGE_LOOP('',(#197));
#77=EDGE_LOOP('',(#198,#199,#200,#201,#202,#203,#204));
#78=EDGE_LOOP('',(#205,#206,#207,#208,#209));
#79=EDGE_LOOP('',(#210,#211,#212,#213,#214,#215));
#80=EDGE_LOOP('',(#216));
#81=EDGE_LOOP('',(#217,#218));
#82=EDGE_LOOP('',(#219,#220,#221,#222,#223));
#83=EDGE_LOOP('',(#224));
#84=EDGE_LOOP('',(#225));
#85=EDGE_LOOP('',(#226,#227,#228,#229));
#86=EDGE_LOOP('',(#230));
#87=EDGE_LOOP('',(#231,#232,#233,#234,#235,#236,#237));
#88=EDGE_LOOP('',(#238,#239,#240,#241));
#89=EDGE_LOOP('',(#242));
#90=EDGE_LOOP('',(#243));
#91=EDGE_LOOP('',(#244,#245,#246,#247));
#92=EDGE_LOOP('',(#248,#249,#250,#251));
#93=EDGE_LOOP('',(#252));
#94=EDGE_LOOP('',(#253));
#95=EDGE_LOOP('',(#254));
#96=EDGE_LOOP('',(#255));
#97=LINE('',#526,#106);
#98=LINE('',#535,#107);
#99=LINE('',#543,#108);
#100=LINE('',#550,#109);
#101=LINE('',#559,#110);
#102=LINE('',#565,#111);
#103=LINE('',#575,#112);
#104=LINE('',#584,#113);
#105=LINE('',#590,#114);
#106=VECTOR('',#423,1.35);
#107=VECTOR('',#434,1.5);
#108=VECTOR('',#443,6.25);
#109=VECTOR('',#452,6.5);
#110=VECTOR('',#463,6.45);
#111=VECTOR('',#470,5.8);
#112=VECTOR('',#485,5.5);
#113=VECTOR('',#498,5.5);
#114=VECTOR('',#505,5.8);
#115=CIRCLE('',#368,1.5);
#116=CIRCLE('',#369,1.5);
#117=CIRCLE('',#370,1.2);
#118=CIRCLE('',#373,1.5);
#119=CIRCLE('',#374,1.5);
#120=CIRCLE('',#375,1.5);
#121=CIRCLE('',#377,6.5);
#122=CIRCLE('',#378,6.5);
#123=CIRCLE('',#379,6.);
#124=CIRCLE('',#381,6.5);
#125=CIRCLE('',#382,6.5);
#126=CIRCLE('',#384,1.8);
#127=CIRCLE('',#385,1.8);
#128=CIRCLE('',#387,6.4);
#129=CIRCLE('',#389,5.8);
#130=CIRCLE('',#391,5.8);
#131=CIRCLE('',#394,0.300000000000001);
#132=CIRCLE('',#397,5.5);
#133=CIRCLE('',#398,5.5);
#134=CIRCLE('',#403,5.5);
#135=CIRCLE('',#404,5.5);
#136=CIRCLE('',#406,5.8);
#137=CIRCLE('',#407,5.8);
#138=VERTEX_POINT('',#521);
#139=VERTEX_POINT('',#522);
#140=VERTEX_POINT('',#525);
#141=VERTEX_POINT('',#530);
#142=VERTEX_POINT('',#531);
#143=VERTEX_POINT('',#533);
#144=VERTEX_POINT('',#538);
#145=VERTEX_POINT('',#539);
#146=VERTEX_POINT('',#542);
#147=VERTEX_POINT('',#546);
#148=VERTEX_POINT('',#547);
#149=VERTEX_POINT('',#552);
#150=VERTEX_POINT('',#553);
#151=VERTEX_POINT('',#557);
#152=VERTEX_POINT('',#561);
#153=VERTEX_POINT('',#564);
#154=VERTEX_POINT('',#572);
#155=VERTEX_POINT('',#574);
#156=VERTEX_POINT('',#581);
#157=VERTEX_POINT('',#583);
#158=VERTEX_POINT('',#587);
#159=VERTEX_POINT('',#589);
#160=EDGE_CURVE('',#138,#139,#115,.T.);
#161=EDGE_CURVE('',#139,#138,#116,.T.);
#162=EDGE_CURVE('',#138,#140,#97,.T.);
#163=EDGE_CURVE('',#140,#140,#117,.T.);
#164=EDGE_CURVE('',#141,#142,#118,.T.);
#165=EDGE_CURVE('',#143,#141,#119,.T.);
#166=EDGE_CURVE('',#143,#139,#98,.T.);
#167=EDGE_CURVE('',#142,#143,#120,.T.);
#168=EDGE_CURVE('',#144,#145,#121,.T.);
#169=EDGE_CURVE('',#145,#144,#122,.T.);
#170=EDGE_CURVE('',#144,#146,#99,.T.);
#171=EDGE_CURVE('',#146,#146,#123,.T.);
#172=EDGE_CURVE('',#147,#148,#124,.T.);
#173=EDGE_CURVE('',#148,#147,#125,.T.);
#174=EDGE_CURVE('',#148,#145,#100,.T.);
#175=EDGE_CURVE('',#149,#150,#126,.T.);
#176=EDGE_CURVE('',#150,#149,#127,.T.);
#177=EDGE_CURVE('',#151,#151,#128,.T.);
#178=EDGE_CURVE('',#151,#147,#101,.T.);
#179=EDGE_CURVE('',#152,#152,#129,.T.);
#180=EDGE_CURVE('',#152,#153,#102,.T.);
#181=EDGE_CURVE('',#153,#153,#130,.T.);
#182=EDGE_CURVE('',#142,#150,#131,.T.);
#183=EDGE_CURVE('',#154,#154,#132,.T.);
#184=EDGE_CURVE('',#154,#155,#103,.T.);
#185=EDGE_CURVE('',#155,#155,#133,.T.);
#186=EDGE_CURVE('',#156,#156,#134,.T.);
#187=EDGE_CURVE('',#156,#157,#104,.T.);
#188=EDGE_CURVE('',#157,#157,#135,.T.);
#189=EDGE_CURVE('',#158,#158,#136,.T.);
#190=EDGE_CURVE('',#158,#159,#105,.T.);
#191=EDGE_CURVE('',#159,#159,#137,.T.);
#192=ORIENTED_EDGE('',*,*,#160,.T.);
#193=ORIENTED_EDGE('',*,*,#161,.T.);
#194=ORIENTED_EDGE('',*,*,#162,.T.);
#195=ORIENTED_EDGE('',*,*,#163,.T.);
#196=ORIENTED_EDGE('',*,*,#162,.F.);
#197=ORIENTED_EDGE('',*,*,#163,.F.);
#198=ORIENTED_EDGE('',*,*,#164,.F.);
#199=ORIENTED_EDGE('',*,*,#165,.F.);
#200=ORIENTED_EDGE('',*,*,#166,.T.);
#201=ORIENTED_EDGE('',*,*,#160,.F.);
#202=ORIENTED_EDGE('',*,*,#161,.F.);
#203=ORIENTED_EDGE('',*,*,#166,.F.);
#204=ORIENTED_EDGE('',*,*,#167,.F.);
#205=ORIENTED_EDGE('',*,*,#168,.T.);
#206=ORIENTED_EDGE('',*,*,#169,.T.);
#207=ORIENTED_EDGE('',*,*,#170,.T.);
#208=ORIENTED_EDGE('',*,*,#171,.T.);
#209=ORIENTED_EDGE('',*,*,#170,.F.);
#210=ORIENTED_EDGE('',*,*,#172,.F.);
#211=ORIENTED_EDGE('',*,*,#173,.F.);
#212=ORIENTED_EDGE('',*,*,#174,.T.);
#213=ORIENTED_EDGE('',*,*,#168,.F.);
#214=ORIENTED_EDGE('',*,*,#169,.F.);
#215=ORIENTED_EDGE('',*,*,#174,.F.);
#216=ORIENTED_EDGE('',*,*,#171,.F.);
#217=ORIENTED_EDGE('',*,*,#175,.T.);
#218=ORIENTED_EDGE('',*,*,#176,.T.);
#219=ORIENTED_EDGE('',*,*,#177,.T.);
#220=ORIENTED_EDGE('',*,*,#178,.T.);
#221=ORIENTED_EDGE('',*,*,#172,.T.);
#222=ORIENTED_EDGE('',*,*,#173,.T.);
#223=ORIENTED_EDGE('',*,*,#178,.F.);
#224=ORIENTED_EDGE('',*,*,#177,.F.);
#225=ORIENTED_EDGE('',*,*,#179,.T.);
#226=ORIENTED_EDGE('',*,*,#179,.F.);
#227=ORIENTED_EDGE('',*,*,#180,.T.);
#228=ORIENTED_EDGE('',*,*,#181,.T.);
#229=ORIENTED_EDGE('',*,*,#180,.F.);
#230=ORIENTED_EDGE('',*,*,#181,.F.);
#231=ORIENTED_EDGE('',*,*,#164,.T.);
#232=ORIENTED_EDGE('',*,*,#182,.T.);
#233=ORIENTED_EDGE('',*,*,#175,.F.);
#234=ORIENTED_EDGE('',*,*,#176,.F.);
#235=ORIENTED_EDGE('',*,*,#182,.F.);
#236=ORIENTED_EDGE('',*,*,#167,.T.);
#237=ORIENTED_EDGE('',*,*,#165,.T.);
#238=ORIENTED_EDGE('',*,*,#183,.F.);
#239=ORIENTED_EDGE('',*,*,#184,.T.);
#240=ORIENTED_EDGE('',*,*,#185,.F.);
#241=ORIENTED_EDGE('',*,*,#184,.F.);
#242=ORIENTED_EDGE('',*,*,#185,.T.);
#243=ORIENTED_EDGE('',*,*,#183,.T.);
#244=ORIENTED_EDGE('',*,*,#186,.F.);
#245=ORIENTED_EDGE('',*,*,#187,.T.);
#246=ORIENTED_EDGE('',*,*,#188,.F.);
#247=ORIENTED_EDGE('',*,*,#187,.F.);
#248=ORIENTED_EDGE('',*,*,#189,.F.);
#249=ORIENTED_EDGE('',*,*,#190,.T.);
#250=ORIENTED_EDGE('',*,*,#191,.F.);
#251=ORIENTED_EDGE('',*,*,#190,.F.);
#252=ORIENTED_EDGE('',*,*,#191,.T.);
#253=ORIENTED_EDGE('',*,*,#186,.T.);
#254=ORIENTED_EDGE('',*,*,#189,.T.);
#255=ORIENTED_EDGE('',*,*,#188,.T.);
#256=CONICAL_SURFACE('',#367,1.35,0.785398163397448);
#257=CONICAL_SURFACE('',#376,6.25,0.785398163397449);
#258=CONICAL_SURFACE('',#386,6.45,0.785398163397448);
#259=ADVANCED_FACE('',(#57),#256,.T.);
#260=ADVANCED_FACE('',(#58),#49,.T.);
#261=ADVANCED_FACE('',(#59),#43,.T.);
#262=ADVANCED_FACE('',(#60),#257,.T.);
#263=ADVANCED_FACE('',(#61),#44,.T.);
#264=ADVANCED_FACE('',(#62,#39),#50,.T.);
#265=ADVANCED_FACE('',(#63),#258,.T.);
#266=ADVANCED_FACE('',(#64,#40),#51,.T.);
#267=ADVANCED_FACE('',(#65),#45,.F.);
#268=ADVANCED_FACE('',(#66),#52,.F.);
#269=ADVANCED_FACE('',(#67),#38,.F.);
#270=ADVANCED_FACE('',(#68),#46,.T.);
#271=ADVANCED_FACE('',(#69),#53,.F.);
#272=ADVANCED_FACE('',(#70),#54,.T.);
#273=ADVANCED_FACE('',(#71),#47,.F.);
#274=ADVANCED_FACE('',(#72),#48,.T.);
#275=ADVANCED_FACE('',(#73,#41),#55,.F.);
#276=ADVANCED_FACE('',(#74,#42),#56,.T.);
#277=CLOSED_SHELL('',(#259,#260,#261,#262,#263,#264,#265,#266,#267,#268,
#269));
#278=CLOSED_SHELL('',(#270,#271,#272));
#279=CLOSED_SHELL('',(#273,#274,#275,#276));
#280=DERIVED_UNIT_ELEMENT(#286,1.);
#281=DERIVED_UNIT_ELEMENT(#608,3.);
#282=DERIVED_UNIT_ELEMENT(#286,1.);
#283=DERIVED_UNIT_ELEMENT(#608,3.);
#284=DERIVED_UNIT_ELEMENT(#286,1.);
#285=DERIVED_UNIT_ELEMENT(#608,3.);
#286=(
MASS_UNIT()
NAMED_UNIT(*)
SI_UNIT($,.GRAM.)
);
#287=DERIVED_UNIT((#280,#281));
#288=DERIVED_UNIT((#282,#283));
#289=DERIVED_UNIT((#284,#285));
#290=MEASURE_REPRESENTATION_ITEM('density measure',
POSITIVE_RATIO_MEASURE(7.85),#287);
#291=MEASURE_REPRESENTATION_ITEM('density measure',
POSITIVE_RATIO_MEASURE(7.85),#288);
#292=MEASURE_REPRESENTATION_ITEM('density measure',
POSITIVE_RATIO_MEASURE(1.),#289);
#293=PROPERTY_DEFINITION_REPRESENTATION(#308,#299);
#294=PROPERTY_DEFINITION_REPRESENTATION(#309,#300);
#295=PROPERTY_DEFINITION_REPRESENTATION(#310,#301);
#296=PROPERTY_DEFINITION_REPRESENTATION(#311,#302);
#297=PROPERTY_DEFINITION_REPRESENTATION(#312,#303);
#298=PROPERTY_DEFINITION_REPRESENTATION(#313,#304);
#299=REPRESENTATION('material name',(#305),#603);
#300=REPRESENTATION('density',(#290),#603);
#301=REPRESENTATION('material name',(#306),#604);
#302=REPRESENTATION('density',(#291),#604);
#303=REPRESENTATION('material name',(#307),#605);
#304=REPRESENTATION('density',(#292),#605);
#305=DESCRIPTIVE_REPRESENTATION_ITEM('Steel, Carbon','Steel, Carbon');
#306=DESCRIPTIVE_REPRESENTATION_ITEM('Steel, Carbon','Steel, Carbon');
#307=DESCRIPTIVE_REPRESENTATION_ITEM('PE','PE');
#308=PROPERTY_DEFINITION('material property','material name',#628);
#309=PROPERTY_DEFINITION('material property','density of part',#628);
#310=PROPERTY_DEFINITION('material property','material name',#629);
#311=PROPERTY_DEFINITION('material property','density of part',#629);
#312=PROPERTY_DEFINITION('material property','material name',#630);
#313=PROPERTY_DEFINITION('material property','density of part',#630);
#314=PRESENTATION_STYLE_ASSIGNMENT((#317));
#315=PRESENTATION_STYLE_ASSIGNMENT((#318));
#316=PRESENTATION_STYLE_ASSIGNMENT((#319));
#317=SURFACE_STYLE_USAGE(.BOTH.,#326);
#318=SURFACE_STYLE_USAGE(.BOTH.,#327);
#319=SURFACE_STYLE_USAGE(.BOTH.,#328);
#320=SURFACE_STYLE_RENDERING_WITH_PROPERTIES($,#338,(#323));
#321=SURFACE_STYLE_RENDERING_WITH_PROPERTIES($,#339,(#324));
#322=SURFACE_STYLE_RENDERING_WITH_PROPERTIES($,#340,(#325));
#323=SURFACE_STYLE_TRANSPARENT(0.);
#324=SURFACE_STYLE_TRANSPARENT(0.);
#325=SURFACE_STYLE_TRANSPARENT(0.);
#326=SURFACE_SIDE_STYLE('',(#329,#320));
#327=SURFACE_SIDE_STYLE('',(#330,#321));
#328=SURFACE_SIDE_STYLE('',(#331,#322));
#329=SURFACE_STYLE_FILL_AREA(#332);
#330=SURFACE_STYLE_FILL_AREA(#333);
#331=SURFACE_STYLE_FILL_AREA(#334);
#332=FILL_AREA_STYLE('',(#335));
#333=FILL_AREA_STYLE('',(#336));
#334=FILL_AREA_STYLE('',(#337));
#335=FILL_AREA_STYLE_COLOUR('',#338);
#336=FILL_AREA_STYLE_COLOUR('',#339);
#337=FILL_AREA_STYLE_COLOUR('',#340);
#338=COLOUR_RGB('',0.745098039215686,0.737254901960784,0.729411764705882);
#339=COLOUR_RGB('',0.501960784313725,1.,0.501960784313725);
#340=COLOUR_RGB('',0.,0.,0.);
#341=DATE_TIME_ROLE('creation_date');
#342=DATE_TIME_ROLE('creation_date');
#343=DATE_TIME_ROLE('creation_date');
#344=DATE_TIME_ROLE('creation_date');
#345=APPLIED_DATE_AND_TIME_ASSIGNMENT(#349,#341,(#627));
#346=APPLIED_DATE_AND_TIME_ASSIGNMENT(#350,#342,(#628));
#347=APPLIED_DATE_AND_TIME_ASSIGNMENT(#351,#343,(#629));
#348=APPLIED_DATE_AND_TIME_ASSIGNMENT(#352,#344,(#630));
#349=DATE_AND_TIME(#353,#357);
#350=DATE_AND_TIME(#354,#358);
#351=DATE_AND_TIME(#355,#359);
#352=DATE_AND_TIME(#356,#360);
#353=CALENDAR_DATE(2019,8,9);
#354=CALENDAR_DATE(2019,8,9);
#355=CALENDAR_DATE(2019,8,9);
#356=CALENDAR_DATE(2019,8,9);
#357=LOCAL_TIME(22,0,0.,#361);
#358=LOCAL_TIME(22,0,0.,#362);
#359=LOCAL_TIME(22,0,0.,#363);
#360=LOCAL_TIME(22,0,0.,#364);
#361=COORDINATED_UNIVERSAL_TIME_OFFSET(0,0,.BEHIND.);
#362=COORDINATED_UNIVERSAL_TIME_OFFSET(0,0,.BEHIND.);
#363=COORDINATED_UNIVERSAL_TIME_OFFSET(0,0,.BEHIND.);
#364=COORDINATED_UNIVERSAL_TIME_OFFSET(0,0,.BEHIND.);
#365=AXIS2_PLACEMENT_3D('placement',#518,#413,#414);
#366=AXIS2_PLACEMENT_3D('placement',#519,#415,#416);
#367=AXIS2_PLACEMENT_3D('',#520,#417,#418);
#368=AXIS2_PLACEMENT_3D('',#523,#419,#420);
#369=AXIS2_PLACEMENT_3D('',#524,#421,#422);
#370=AXIS2_PLACEMENT_3D('',#527,#424,#425);
#371=AXIS2_PLACEMENT_3D('',#528,#426,#427);
#372=AXIS2_PLACEMENT_3D('',#529,#428,#429);
#373=AXIS2_PLACEMENT_3D('',#532,#430,#431);
#374=AXIS2_PLACEMENT_3D('',#534,#432,#433);
#375=AXIS2_PLACEMENT_3D('',#536,#435,#436);
#376=AXIS2_PLACEMENT_3D('',#537,#437,#438);
#377=AXIS2_PLACEMENT_3D('',#540,#439,#440);
#378=AXIS2_PLACEMENT_3D('',#541,#441,#442);
#379=AXIS2_PLACEMENT_3D('',#544,#444,#445);
#380=AXIS2_PLACEMENT_3D('',#545,#446,#447);
#381=AXIS2_PLACEMENT_3D('',#548,#448,#449);
#382=AXIS2_PLACEMENT_3D('',#549,#450,#451);
#383=AXIS2_PLACEMENT_3D('',#551,#453,#454);
#384=AXIS2_PLACEMENT_3D('',#554,#455,#456);
#385=AXIS2_PLACEMENT_3D('',#555,#457,#458);
#386=AXIS2_PLACEMENT_3D('',#556,#459,#460);
#387=AXIS2_PLACEMENT_3D('',#558,#461,#462);
#388=AXIS2_PLACEMENT_3D('',#560,#464,#465);
#389=AXIS2_PLACEMENT_3D('',#562,#466,#467);
#390=AXIS2_PLACEMENT_3D('',#563,#468,#469);
#391=AXIS2_PLACEMENT_3D('',#566,#471,#472);
#392=AXIS2_PLACEMENT_3D('',#567,#473,#474);
#393=AXIS2_PLACEMENT_3D('',#568,#475,#476);
#394=AXIS2_PLACEMENT_3D('',#569,#477,#478);
#395=AXIS2_PLACEMENT_3D('placement',#570,#479,#480);
#396=AXIS2_PLACEMENT_3D('',#571,#481,#482);
#397=AXIS2_PLACEMENT_3D('',#573,#483,#484);
#398=AXIS2_PLACEMENT_3D('',#576,#486,#487);
#399=AXIS2_PLACEMENT_3D('',#577,#488,#489);
#400=AXIS2_PLACEMENT_3D('',#578,#490,#491);
#401=AXIS2_PLACEMENT_3D('placement',#579,#492,#493);
#402=AXIS2_PLACEMENT_3D('',#580,#494,#495);
#403=AXIS2_PLACEMENT_3D('',#582,#496,#497);
#404=AXIS2_PLACEMENT_3D('',#585,#499,#500);
#405=AXIS2_PLACEMENT_3D('',#586,#501,#502);
#406=AXIS2_PLACEMENT_3D('',#588,#503,#504);
#407=AXIS2_PLACEMENT_3D('',#591,#506,#507);
#408=AXIS2_PLACEMENT_3D('',#592,#508,#509);
#409=AXIS2_PLACEMENT_3D('',#593,#510,#511);
#410=AXIS2_PLACEMENT_3D('',#594,#512,#513);
#411=AXIS2_PLACEMENT_3D('',#595,#514,#515);
#412=AXIS2_PLACEMENT_3D('',#596,#516,#517);
#413=DIRECTION('axis',(0.,0.,1.));
#414=DIRECTION('refdir',(1.,0.,0.));
#415=DIRECTION('axis',(0.,0.,1.));
#416=DIRECTION('refdir',(1.,0.,0.));
#417=DIRECTION('center_axis',(0.,-1.,0.));
#418=DIRECTION('ref_axis',(-1.,0.,0.));
#419=DIRECTION('center_axis',(0.,1.,0.));
#420=DIRECTION('ref_axis',(-1.,0.,0.));
#421=DIRECTION('center_axis',(0.,1.,0.));
#422=DIRECTION('ref_axis',(-1.,0.,0.));
#423=DIRECTION('',(-0.707106781186547,0.707106781186548,-8.65956056235493E-17));
#424=DIRECTION('center_axis',(0.,-1.,0.));
#425=DIRECTION('ref_axis',(-1.,0.,0.));
#426=DIRECTION('center_axis',(0.,1.,0.));
#427=DIRECTION('ref_axis',(0.,0.,1.));
#428=DIRECTION('center_axis',(0.,-1.,0.));
#429=DIRECTION('ref_axis',(1.,0.,0.));
#430=DIRECTION('center_axis',(0.,-1.,0.));
#431=DIRECTION('ref_axis',(1.,0.,0.));
#432=DIRECTION('center_axis',(0.,-1.,0.));
#433=DIRECTION('ref_axis',(1.,0.,0.));
#434=DIRECTION('',(0.,1.,0.));
#435=DIRECTION('center_axis',(0.,-1.,0.));
#436=DIRECTION('ref_axis',(1.,0.,0.));
#437=DIRECTION('center_axis',(0.,-1.,0.));
#438=DIRECTION('ref_axis',(-1.,0.,0.));
#439=DIRECTION('center_axis',(0.,1.,0.));
#440=DIRECTION('ref_axis',(-1.,0.,0.));
#441=DIRECTION('center_axis',(0.,1.,0.));
#442=DIRECTION('ref_axis',(-1.,0.,0.));
#443=DIRECTION('',(-0.707106781186548,0.707106781186547,-8.65956056235494E-17));
#444=DIRECTION('center_axis',(0.,-1.,0.));
#445=DIRECTION('ref_axis',(-1.,0.,0.));
#446=DIRECTION('center_axis',(0.,-1.,0.));
#447=DIRECTION('ref_axis',(1.,0.,0.));
#448=DIRECTION('center_axis',(0.,-1.,0.));
#449=DIRECTION('ref_axis',(-1.,0.,0.));
#450=DIRECTION('center_axis',(0.,-1.,0.));
#451=DIRECTION('ref_axis',(-1.,0.,0.));
#452=DIRECTION('',(0.,1.,0.));
#453=DIRECTION('center_axis',(0.,1.,0.));
#454=DIRECTION('ref_axis',(0.,0.,1.));
#455=DIRECTION('center_axis',(0.,-1.,0.));
#456=DIRECTION('ref_axis',(1.,0.,0.));
#457=DIRECTION('center_axis',(0.,-1.,0.));
#458=DIRECTION('ref_axis',(1.,0.,0.));
#459=DIRECTION('center_axis',(0.,1.,0.));
#460=DIRECTION('ref_axis',(-1.,0.,0.));
#461=DIRECTION('center_axis',(0.,1.,0.));
#462=DIRECTION('ref_axis',(-1.,0.,0.));
#463=DIRECTION('',(0.707106781186548,0.707106781186548,8.65956056235493E-17));
#464=DIRECTION('center_axis',(0.,-1.,0.));
#465=DIRECTION('ref_axis',(0.,0.,-1.));
#466=DIRECTION('center_axis',(0.,1.,0.));
#467=DIRECTION('ref_axis',(-1.,0.,0.));
#468=DIRECTION('center_axis',(0.,1.,0.));
#469=DIRECTION('ref_axis',(-1.,0.,0.));
#470=DIRECTION('',(0.,1.,0.));
#471=DIRECTION('center_axis',(0.,1.,0.));
#472=DIRECTION('ref_axis',(-1.,0.,0.));
#473=DIRECTION('center_axis',(0.,1.,0.));
#474=DIRECTION('ref_axis',(0.,0.,1.));
#475=DIRECTION('center_axis',(0.,-1.,0.));
#476=DIRECTION('ref_axis',(0.,0.,-1.));
#477=DIRECTION('center_axis',(-1.,0.,-1.22464679914735E-16));
#478=DIRECTION('ref_axis',(-1.22464679914735E-16,0.,1.));
#479=DIRECTION('axis',(0.,0.,1.));
#480=DIRECTION('refdir',(1.,0.,0.));
#481=DIRECTION('center_axis',(0.,0.,1.));
#482=DIRECTION('ref_axis',(-1.,0.,0.));
#483=DIRECTION('center_axis',(0.,0.,1.));
#484=DIRECTION('ref_axis',(-1.,0.,0.));
#485=DIRECTION('',(0.,0.,-1.));
#486=DIRECTION('center_axis',(0.,0.,-1.));
#487=DIRECTION('ref_axis',(-1.,0.,0.));
#488=DIRECTION('center_axis',(0.,0.,1.));
#489=DIRECTION('ref_axis',(1.,0.,0.));
#490=DIRECTION('center_axis',(0.,0.,1.));
#491=DIRECTION('ref_axis',(1.,0.,0.));
#492=DIRECTION('axis',(0.,0.,1.));
#493=DIRECTION('refdir',(1.,0.,0.));
#494=DIRECTION('center_axis',(0.,1.,0.));
#495=DIRECTION('ref_axis',(1.,0.,0.));
#496=DIRECTION('center_axis',(0.,1.,0.));
#497=DIRECTION('ref_axis',(1.,0.,0.));
#498=DIRECTION('',(0.,1.,0.));
#499=DIRECTION('center_axis',(0.,-1.,0.));
#500=DIRECTION('ref_axis',(1.,0.,0.));
#501=DIRECTION('center_axis',(0.,1.,0.));
#502=DIRECTION('ref_axis',(1.,0.,0.));
#503=DIRECTION('center_axis',(0.,1.,0.));
#504=DIRECTION('ref_axis',(1.,0.,0.));
#505=DIRECTION('',(0.,-1.,0.));
#506=DIRECTION('center_axis',(0.,-1.,0.));
#507=DIRECTION('ref_axis',(1.,0.,0.));
#508=DIRECTION('center_axis',(0.,1.,0.));
#509=DIRECTION('ref_axis',(0.,0.,1.));
#510=DIRECTION('center_axis',(0.,1.,0.));
#511=DIRECTION('ref_axis',(0.,0.,1.));
#512=DIRECTION('',(0.,0.,1.));
#513=DIRECTION('',(1.,0.,0.));
#514=DIRECTION('',(0.,-1.,0.));
#515=DIRECTION('',(0.685778078238884,0.,0.727810708499802));
#516=DIRECTION('',(0.929095139924804,0.,0.369840804898688));
#517=DIRECTION('',(0.369840804898688,0.,-0.929095139924804));
#518=CARTESIAN_POINT('',(0.,0.,0.));
#519=CARTESIAN_POINT('',(0.,0.,0.));
#520=CARTESIAN_POINT('Origin',(0.,11.35,0.));
#521=CARTESIAN_POINT('',(1.5,11.2,-1.83697019872103E-16));
#522=CARTESIAN_POINT('',(-1.5,11.2,-1.83697019872103E-16));
#523=CARTESIAN_POINT('Origin',(0.,11.2,0.));
#524=CARTESIAN_POINT('Origin',(0.,11.2,0.));
#525=CARTESIAN_POINT('',(1.2,11.5,1.46957615897682E-16));
#526=CARTESIAN_POINT('',(1.35,11.35,1.65327317884893E-16));
#527=CARTESIAN_POINT('Origin',(0.,11.5,0.));
#528=CARTESIAN_POINT('Origin',(1.5,11.5,0.));
#529=CARTESIAN_POINT('Origin',(0.,8.15,0.));
#530=CARTESIAN_POINT('',(1.5,4.8,0.));
#531=CARTESIAN_POINT('',(-1.83697019872103E-16,4.8,1.5));
#532=CARTESIAN_POINT('Origin',(0.,4.8,0.));
#533=CARTESIAN_POINT('',(-1.5,4.8,-1.83697019872103E-16));
#534=CARTESIAN_POINT('Origin',(0.,4.8,0.));
#535=CARTESIAN_POINT('',(-1.5,8.15,-1.83697019872103E-16));
#536=CARTESIAN_POINT('Origin',(0.,4.8,0.));
#537=CARTESIAN_POINT('Origin',(0.,4.25,0.));
#538=CARTESIAN_POINT('',(6.5,4.,-7.9602041944578E-16));
#539=CARTESIAN_POINT('',(-6.5,4.,-7.9602041944578E-16));
#540=CARTESIAN_POINT('Origin',(0.,4.,0.));
#541=CARTESIAN_POINT('Origin',(0.,4.,0.));
#542=CARTESIAN_POINT('',(6.,4.5,7.34788079488412E-16));
#543=CARTESIAN_POINT('',(6.25,4.25,7.65404249467096E-16));
#544=CARTESIAN_POINT('Origin',(0.,4.5,0.));
#545=CARTESIAN_POINT('Origin',(0.,2.25,0.));
#546=CARTESIAN_POINT('',(6.5,0.1,7.9602041944578E-16));
#547=CARTESIAN_POINT('',(-6.5,0.1,-7.9602041944578E-16));
#548=CARTESIAN_POINT('Origin',(0.,0.1,0.));
#549=CARTESIAN_POINT('Origin',(0.,0.1,0.));
#550=CARTESIAN_POINT('',(-6.5,2.25,-7.9602041944578E-16));
#551=CARTESIAN_POINT('Origin',(6.5,4.5,0.));
#552=CARTESIAN_POINT('',(1.8,4.5,0.));
#553=CARTESIAN_POINT('',(-2.20436423846523E-16,4.5,1.8));
#554=CARTESIAN_POINT('Origin',(0.,4.5,0.));
#555=CARTESIAN_POINT('Origin',(0.,4.5,0.));
#556=CARTESIAN_POINT('Origin',(0.,0.05,0.));
#557=CARTESIAN_POINT('',(6.4,0.,-7.83773951454306E-16));
#558=CARTESIAN_POINT('Origin',(0.,0.,0.));
#559=CARTESIAN_POINT('',(6.45,0.05,7.89897185450043E-16));
#560=CARTESIAN_POINT('Origin',(0.,0.,0.));
#561=CARTESIAN_POINT('',(5.8,0.,7.10295143505465E-16));
#562=CARTESIAN_POINT('Origin',(0.,0.,0.));
#563=CARTESIAN_POINT('Origin',(0.,0.,0.));
#564=CARTESIAN_POINT('',(5.8,3.,7.10295143505465E-16));
#565=CARTESIAN_POINT('',(5.8,0.,-7.10295143505465E-16));
#566=CARTESIAN_POINT('Origin',(0.,3.,0.));
#567=CARTESIAN_POINT('Origin',(-3.78220866736132E-16,3.,0.));
#568=CARTESIAN_POINT('Origin',(0.,4.8,0.));
#569=CARTESIAN_POINT('Origin',(-2.20436423846524E-16,4.8,1.8));
#570=CARTESIAN_POINT('',(0.,0.,0.));
#571=CARTESIAN_POINT('Origin',(0.,0.,0.));
#572=CARTESIAN_POINT('',(5.5,6.73555739531044E-16,3.));
#573=CARTESIAN_POINT('Origin',(0.,0.,3.));
#574=CARTESIAN_POINT('',(5.5,6.73555739531044E-16,0.));
#575=CARTESIAN_POINT('',(5.5,6.73555739531044E-16,0.));
#576=CARTESIAN_POINT('Origin',(0.,0.,0.));
#577=CARTESIAN_POINT('Origin',(-2.24345254752611E-16,0.,0.));
#578=CARTESIAN_POINT('Origin',(-2.24345254752611E-16,0.,3.));
#579=CARTESIAN_POINT('',(0.,0.,0.));
#580=CARTESIAN_POINT('Origin',(0.,0.,0.));
#581=CARTESIAN_POINT('',(-5.5,0.,6.73555739531044E-16));
#582=CARTESIAN_POINT('Origin',(0.,0.,0.));
#583=CARTESIAN_POINT('',(-5.5,3.,6.73555739531044E-16));
#584=CARTESIAN_POINT('',(-5.5,0.,6.73555739531044E-16));
#585=CARTESIAN_POINT('Origin',(0.,3.,0.));
#586=CARTESIAN_POINT('Origin',(0.,0.,0.));
#587=CARTESIAN_POINT('',(-5.8,3.,7.10295143505465E-16));
#588=CARTESIAN_POINT('Origin',(0.,3.,0.));
#589=CARTESIAN_POINT('',(-5.8,0.,7.10295143505465E-16));
#590=CARTESIAN_POINT('',(-5.8,0.,7.10295143505465E-16));
#591=CARTESIAN_POINT('Origin',(0.,0.,0.));
#592=CARTESIAN_POINT('Origin',(2.18706064347461E-16,0.,0.));
#593=CARTESIAN_POINT('Origin',(2.18706064347461E-16,3.,0.));
#594=CARTESIAN_POINT('',(0.,0.,0.));
#595=CARTESIAN_POINT('',(0.,3.,0.));
#596=CARTESIAN_POINT('',(0.,0.,0.));
#597=UNCERTAINTY_MEASURE_WITH_UNIT(LENGTH_MEASURE(0.01),#607,
'DISTANCE_ACCURACY_VALUE',
'Maximum model space distance between geometric entities at asserted c
onnectivities');
#598=UNCERTAINTY_MEASURE_WITH_UNIT(LENGTH_MEASURE(0.01),#607,
'DISTANCE_ACCURACY_VALUE',
'Maximum model space distance between geometric entities at asserted c
onnectivities');
#599=UNCERTAINTY_MEASURE_WITH_UNIT(LENGTH_MEASURE(0.01),#607,
'DISTANCE_ACCURACY_VALUE',
'Maximum model space distance between geometric entities at asserted c
onnectivities');
#600=UNCERTAINTY_MEASURE_WITH_UNIT(LENGTH_MEASURE(0.01),#607,
'DISTANCE_ACCURACY_VALUE',
'Maximum model space distance between geometric entities at asserted c
onnectivities');
#601=UNCERTAINTY_MEASURE_WITH_UNIT(LENGTH_MEASURE(0.01),#607,
'DISTANCE_ACCURACY_VALUE',
'Maximum model space distance between geometric entities at asserted c
onnectivities');
#602=(
GEOMETRIC_REPRESENTATION_CONTEXT(3)
GLOBAL_UNCERTAINTY_ASSIGNED_CONTEXT((#597))
GLOBAL_UNIT_ASSIGNED_CONTEXT((#607,#609,#610))
REPRESENTATION_CONTEXT('','3D')
);
#603=(
GEOMETRIC_REPRESENTATION_CONTEXT(3)
GLOBAL_UNCERTAINTY_ASSIGNED_CONTEXT((#598))
GLOBAL_UNIT_ASSIGNED_CONTEXT((#607,#609,#610))
REPRESENTATION_CONTEXT('','3D')
);
#604=(
GEOMETRIC_REPRESENTATION_CONTEXT(3)
GLOBAL_UNCERTAINTY_ASSIGNED_CONTEXT((#599))
GLOBAL_UNIT_ASSIGNED_CONTEXT((#607,#609,#610))
REPRESENTATION_CONTEXT('','3D')
);
#605=(
GEOMETRIC_REPRESENTATION_CONTEXT(3)
GLOBAL_UNCERTAINTY_ASSIGNED_CONTEXT((#600))
GLOBAL_UNIT_ASSIGNED_CONTEXT((#607,#609,#610))
REPRESENTATION_CONTEXT('','3D')
);
#606=(
GEOMETRIC_REPRESENTATION_CONTEXT(3)
GLOBAL_UNCERTAINTY_ASSIGNED_CONTEXT((#601))
GLOBAL_UNIT_ASSIGNED_CONTEXT((#607,#609,#610))
REPRESENTATION_CONTEXT('','3D')
);
#607=(
LENGTH_UNIT()
NAMED_UNIT(*)
SI_UNIT(.MILLI.,.METRE.)
);
#608=(
LENGTH_UNIT()
NAMED_UNIT(*)
SI_UNIT(.CENTI.,.METRE.)
);
#609=(
NAMED_UNIT(*)
PLANE_ANGLE_UNIT()
SI_UNIT($,.RADIAN.)
);
#610=(
NAMED_UNIT(*)
SI_UNIT($,.STERADIAN.)
SOLID_ANGLE_UNIT()
);
#611=SHAPE_DEFINITION_REPRESENTATION(#615,#622);
#612=SHAPE_DEFINITION_REPRESENTATION(#616,#623);
#613=SHAPE_DEFINITION_REPRESENTATION(#617,#624);
#614=SHAPE_DEFINITION_REPRESENTATION(#618,#625);
#615=PRODUCT_DEFINITION_SHAPE('',$,#627);
#616=PRODUCT_DEFINITION_SHAPE('',$,#628);
#617=PRODUCT_DEFINITION_SHAPE('',$,#629);
#618=PRODUCT_DEFINITION_SHAPE('',$,#630);
#619=PRODUCT_DEFINITION_SHAPE($,$,#20);
#620=PRODUCT_DEFINITION_SHAPE($,$,#21);
#621=PRODUCT_DEFINITION_SHAPE($,$,#22);
#622=SHAPE_REPRESENTATION('',(#365,#410,#411,#412),#602);
#623=SHAPE_REPRESENTATION('',(#366),#603);
#624=SHAPE_REPRESENTATION('',(#395),#604);
#625=SHAPE_REPRESENTATION('',(#401),#605);
#626=PRODUCT_DEFINITION_CONTEXT('part definition',#640,'design');
#627=PRODUCT_DEFINITION('GM16702','GM16702',#631,#626);
#628=PRODUCT_DEFINITION('E0122245','E0122245',#632,#626);
#629=PRODUCT_DEFINITION('E0122244','E0122244',#633,#626);
#630=PRODUCT_DEFINITION('E0122243','E0122243',#634,#626);
#631=PRODUCT_DEFINITION_FORMATION('-',$,#642);
#632=PRODUCT_DEFINITION_FORMATION('-',$,#643);
#633=PRODUCT_DEFINITION_FORMATION('-',$,#644);
#634=PRODUCT_DEFINITION_FORMATION('-',$,#645);
#635=PRODUCT_RELATED_PRODUCT_CATEGORY('GM16702','GM16702',(#642));
#636=PRODUCT_RELATED_PRODUCT_CATEGORY('E0122245','E0122245',(#643));
#637=PRODUCT_RELATED_PRODUCT_CATEGORY('E0122244','E0122244',(#644));
#638=PRODUCT_RELATED_PRODUCT_CATEGORY('E0122243','E0122243',(#645));
#639=APPLICATION_PROTOCOL_DEFINITION('international standard',
'automotive_design',2009,#640);
#640=APPLICATION_CONTEXT(
'Core Data for Automotive Mechanical Design Process');
#641=PRODUCT_CONTEXT('part definition',#640,'mechanical');
#642=PRODUCT('GM16702','GM16702',$,(#641));
#643=PRODUCT('E0122245','E0122245',$,(#641));
#644=PRODUCT('E0122244','E0122244',$,(#641));
#645=PRODUCT('E0122243','E0122243',$,(#641));
ENDSEC;
END-ISO-10303-21;
