ISO-10303-21;
HEADER;
/* Generated by software containing ST-Developer
 * from STEP Tools, Inc. (www.steptools.com) 
 */

FILE_DESCRIPTION(
/* description */ (''),
/* implementation_level */ '2;1');

FILE_NAME(
/* name */ 'C:\\TEMP\\GM17114 -.stp',
/* time_stamp */ '2022-10-12T10:37:36+02:00',
/* author */ ('rm'),
/* organization */ (''),
/* preprocessor_version */ 'ST-DEVELOPER v18.1',
/* originating_system */ 'Autodesk Inventor 2021',
/* authorisation */ '');

FILE_SCHEMA (('CONFIG_CONTROL_DESIGN'));
ENDSEC;

DATA;
#10=MECHANICAL_DESIGN_GEOMETRIC_PRESENTATION_REPRESENTATION('',(#24,#25),
#366);
#11=ITEM_DEFINED_TRANSFORMATION($,$,#227,#252);
#12=ITEM_DEFINED_TRANSFORMATION($,$,#236,#253);
#13=(
REPRESENTATION_RELATIONSHIP($,$,#380,#379)
REPRESENTATION_RELATIONSHIP_WITH_TRANSFORMATION(#11)
SHAPE_REPRESENTATION_RELATIONSHIP()
);
#14=(
REPRESENTATION_RELATIONSHIP($,$,#381,#379)
REPRESENTATION_RELATIONSHIP_WITH_TRANSFORMATION(#12)
SHAPE_REPRESENTATION_RELATIONSHIP()
);
#15=CONTEXT_DEPENDENT_SHAPE_REPRESENTATION(#13,#377);
#16=CONTEXT_DEPENDENT_SHAPE_REPRESENTATION(#14,#378);
#17=NEXT_ASSEMBLY_USAGE_OCCURRENCE('E0143060:1','E0143060:1',
'E0143060:1',#383,#384,'E0143060:1');
#18=NEXT_ASSEMBLY_USAGE_OCCURRENCE('E0143061:1','E0143061:1',
'E0143061:1',#383,#385,'E0143061:1');
#19=TOROIDAL_SURFACE('',#237,19.,1.);
#20=SHAPE_REPRESENTATION_RELATIONSHIP('SRR','None',#380,#22);
#21=SHAPE_REPRESENTATION_RELATIONSHIP('SRR','None',#381,#23);
#22=ADVANCED_BREP_SHAPE_REPRESENTATION('',(#26),#364);
#23=ADVANCED_BREP_SHAPE_REPRESENTATION('',(#27),#365);
#24=STYLED_ITEM('',(#190),#26);
#25=STYLED_ITEM('',(#191),#27);
#26=MANIFOLD_SOLID_BREP('Solid2',#165);
#27=MANIFOLD_SOLID_BREP('Solid2',#166);
#28=LINE('',#325,#33);
#29=LINE('',#329,#34);
#30=LINE('',#340,#35);
#31=LINE('',#347,#36);
#32=LINE('',#354,#37);
#33=VECTOR('',#268,5.25);
#34=VECTOR('',#273,16.);
#35=VECTOR('',#288,20.);
#36=VECTOR('',#297,2.75);
#37=VECTOR('',#306,16.);
#38=CYLINDRICAL_SURFACE('',#231,5.25);
#39=CYLINDRICAL_SURFACE('',#233,16.);
#40=CYLINDRICAL_SURFACE('',#241,20.);
#41=CYLINDRICAL_SURFACE('',#245,2.75);
#42=CYLINDRICAL_SURFACE('',#249,16.);
#43=FACE_BOUND('',#60,.T.);
#44=FACE_BOUND('',#64,.T.);
#45=FACE_BOUND('',#68,.T.);
#46=FACE_BOUND('',#71,.T.);
#47=FACE_BOUND('',#74,.T.);
#48=FACE_OUTER_BOUND('',#59,.T.);
#49=FACE_OUTER_BOUND('',#61,.T.);
#50=FACE_OUTER_BOUND('',#62,.T.);
#51=FACE_OUTER_BOUND('',#63,.T.);
#52=FACE_OUTER_BOUND('',#65,.T.);
#53=FACE_OUTER_BOUND('',#66,.T.);
#54=FACE_OUTER_BOUND('',#67,.T.);
#55=FACE_OUTER_BOUND('',#69,.T.);
#56=FACE_OUTER_BOUND('',#70,.T.);
#57=FACE_OUTER_BOUND('',#72,.T.);
#58=FACE_OUTER_BOUND('',#73,.T.);
#59=EDGE_LOOP('',(#115));
#60=EDGE_LOOP('',(#116));
#61=EDGE_LOOP('',(#117,#118,#119,#120));
#62=EDGE_LOOP('',(#121,#122,#123,#124));
#63=EDGE_LOOP('',(#125));
#64=EDGE_LOOP('',(#126));
#65=EDGE_LOOP('',(#127,#128,#129,#130));
#66=EDGE_LOOP('',(#131,#132,#133,#134));
#67=EDGE_LOOP('',(#135));
#68=EDGE_LOOP('',(#136));
#69=EDGE_LOOP('',(#137,#138,#139,#140));
#70=EDGE_LOOP('',(#141));
#71=EDGE_LOOP('',(#142));
#72=EDGE_LOOP('',(#143,#144,#145,#146));
#73=EDGE_LOOP('',(#147));
#74=EDGE_LOOP('',(#148));
#75=CIRCLE('',#229,16.);
#76=CIRCLE('',#230,5.25);
#77=CIRCLE('',#232,5.25);
#78=CIRCLE('',#234,16.);
#79=CIRCLE('',#238,19.);
#80=CIRCLE('',#239,1.);
#81=CIRCLE('',#240,20.);
#82=CIRCLE('',#242,20.);
#83=CIRCLE('',#244,2.75);
#84=CIRCLE('',#246,2.75);
#85=CIRCLE('',#248,16.);
#86=CIRCLE('',#250,16.);
#87=VERTEX_POINT('',#318);
#88=VERTEX_POINT('',#320);
#89=VERTEX_POINT('',#323);
#90=VERTEX_POINT('',#327);
#91=VERTEX_POINT('',#333);
#92=VERTEX_POINT('',#335);
#93=VERTEX_POINT('',#339);
#94=VERTEX_POINT('',#343);
#95=VERTEX_POINT('',#346);
#96=VERTEX_POINT('',#350);
#97=VERTEX_POINT('',#353);
#98=EDGE_CURVE('',#87,#87,#75,.T.);
#99=EDGE_CURVE('',#88,#88,#76,.T.);
#100=EDGE_CURVE('',#89,#89,#77,.T.);
#101=EDGE_CURVE('',#89,#88,#28,.T.);
#102=EDGE_CURVE('',#90,#90,#78,.T.);
#103=EDGE_CURVE('',#90,#87,#29,.T.);
#104=EDGE_CURVE('',#91,#91,#79,.T.);
#105=EDGE_CURVE('',#91,#92,#80,.T.);
#106=EDGE_CURVE('',#92,#92,#81,.T.);
#107=EDGE_CURVE('',#92,#93,#30,.T.);
#108=EDGE_CURVE('',#93,#93,#82,.T.);
#109=EDGE_CURVE('',#94,#94,#83,.T.);
#110=EDGE_CURVE('',#94,#95,#31,.T.);
#111=EDGE_CURVE('',#95,#95,#84,.T.);
#112=EDGE_CURVE('',#96,#96,#85,.T.);
#113=EDGE_CURVE('',#96,#97,#32,.T.);
#114=EDGE_CURVE('',#97,#97,#86,.T.);
#115=ORIENTED_EDGE('',*,*,#98,.T.);
#116=ORIENTED_EDGE('',*,*,#99,.T.);
#117=ORIENTED_EDGE('',*,*,#100,.F.);
#118=ORIENTED_EDGE('',*,*,#101,.T.);
#119=ORIENTED_EDGE('',*,*,#99,.F.);
#120=ORIENTED_EDGE('',*,*,#101,.F.);
#121=ORIENTED_EDGE('',*,*,#102,.F.);
#122=ORIENTED_EDGE('',*,*,#103,.T.);
#123=ORIENTED_EDGE('',*,*,#98,.F.);
#124=ORIENTED_EDGE('',*,*,#103,.F.);
#125=ORIENTED_EDGE('',*,*,#102,.T.);
#126=ORIENTED_EDGE('',*,*,#100,.T.);
#127=ORIENTED_EDGE('',*,*,#104,.T.);
#128=ORIENTED_EDGE('',*,*,#105,.T.);
#129=ORIENTED_EDGE('',*,*,#106,.T.);
#130=ORIENTED_EDGE('',*,*,#105,.F.);
#131=ORIENTED_EDGE('',*,*,#106,.F.);
#132=ORIENTED_EDGE('',*,*,#107,.T.);
#133=ORIENTED_EDGE('',*,*,#108,.T.);
#134=ORIENTED_EDGE('',*,*,#107,.F.);
#135=ORIENTED_EDGE('',*,*,#104,.F.);
#136=ORIENTED_EDGE('',*,*,#109,.F.);
#137=ORIENTED_EDGE('',*,*,#109,.T.);
#138=ORIENTED_EDGE('',*,*,#110,.T.);
#139=ORIENTED_EDGE('',*,*,#111,.F.);
#140=ORIENTED_EDGE('',*,*,#110,.F.);
#141=ORIENTED_EDGE('',*,*,#112,.F.);
#142=ORIENTED_EDGE('',*,*,#111,.T.);
#143=ORIENTED_EDGE('',*,*,#112,.T.);
#144=ORIENTED_EDGE('',*,*,#113,.T.);
#145=ORIENTED_EDGE('',*,*,#114,.F.);
#146=ORIENTED_EDGE('',*,*,#113,.F.);
#147=ORIENTED_EDGE('',*,*,#108,.F.);
#148=ORIENTED_EDGE('',*,*,#114,.T.);
#149=PLANE('',#228);
#150=PLANE('',#235);
#151=PLANE('',#243);
#152=PLANE('',#247);
#153=PLANE('',#251);
#154=ADVANCED_FACE('',(#48,#43),#149,.F.);
#155=ADVANCED_FACE('',(#49),#38,.F.);
#156=ADVANCED_FACE('',(#50),#39,.T.);
#157=ADVANCED_FACE('',(#51,#44),#150,.T.);
#158=ADVANCED_FACE('',(#52),#19,.T.);
#159=ADVANCED_FACE('',(#53),#40,.T.);
#160=ADVANCED_FACE('',(#54,#45),#151,.T.);
#161=ADVANCED_FACE('',(#55),#41,.F.);
#162=ADVANCED_FACE('',(#56,#46),#152,.T.);
#163=ADVANCED_FACE('',(#57),#42,.F.);
#164=ADVANCED_FACE('',(#58,#47),#153,.T.);
#165=CLOSED_SHELL('',(#154,#155,#156,#157));
#166=CLOSED_SHELL('',(#158,#159,#160,#161,#162,#163,#164));
#167=DERIVED_UNIT_ELEMENT(#171,1.);
#168=DERIVED_UNIT_ELEMENT(#368,-3.);
#169=DERIVED_UNIT_ELEMENT(#171,1.);
#170=DERIVED_UNIT_ELEMENT(#368,-3.);
#171=(
MASS_UNIT()
NAMED_UNIT(*)
SI_UNIT($,.GRAM.)
);
#172=DERIVED_UNIT((#167,#168));
#173=DERIVED_UNIT((#169,#170));
#174=MEASURE_REPRESENTATION_ITEM('density measure',
POSITIVE_RATIO_MEASURE(8.4),#172);
#175=MEASURE_REPRESENTATION_ITEM('density measure',
POSITIVE_RATIO_MEASURE(8.03),#173);
#176=PROPERTY_DEFINITION_REPRESENTATION(#186,#180);
#177=PROPERTY_DEFINITION_REPRESENTATION(#187,#181);
#178=PROPERTY_DEFINITION_REPRESENTATION(#188,#182);
#179=PROPERTY_DEFINITION_REPRESENTATION(#189,#183);
#180=REPRESENTATION('material name',(#184),#364);
#181=REPRESENTATION('density',(#174),#364);
#182=REPRESENTATION('material name',(#185),#365);
#183=REPRESENTATION('density',(#175),#365);
#184=DESCRIPTIVE_REPRESENTATION_ITEM('SmCo','SmCo');
#185=DESCRIPTIVE_REPRESENTATION_ITEM('AISI 304','AISI 304');
#186=PROPERTY_DEFINITION('material property','material name',#384);
#187=PROPERTY_DEFINITION('material property','density of part',#384);
#188=PROPERTY_DEFINITION('material property','material name',#385);
#189=PROPERTY_DEFINITION('material property','density of part',#385);
#190=PRESENTATION_STYLE_ASSIGNMENT((#192));
#191=PRESENTATION_STYLE_ASSIGNMENT((#193));
#192=SURFACE_STYLE_USAGE(.BOTH.,#198);
#193=SURFACE_STYLE_USAGE(.BOTH.,#199);
#194=SURFACE_STYLE_RENDERING_WITH_PROPERTIES($,#206,(#196));
#195=SURFACE_STYLE_RENDERING_WITH_PROPERTIES($,#207,(#197));
#196=SURFACE_STYLE_TRANSPARENT(0.);
#197=SURFACE_STYLE_TRANSPARENT(0.);
#198=SURFACE_SIDE_STYLE('',(#200,#194));
#199=SURFACE_SIDE_STYLE('',(#201,#195));
#200=SURFACE_STYLE_FILL_AREA(#202);
#201=SURFACE_STYLE_FILL_AREA(#203);
#202=FILL_AREA_STYLE('',(#204));
#203=FILL_AREA_STYLE('',(#205));
#204=FILL_AREA_STYLE_COLOUR('',#206);
#205=FILL_AREA_STYLE_COLOUR('',#207);
#206=COLOUR_RGB('',0.,1.,1.);
#207=COLOUR_RGB('',0.745098039215686,0.737254901960784,0.729411764705882);
#208=DATE_TIME_ROLE('creation_date');
#209=DATE_TIME_ROLE('creation_date');
#210=DATE_TIME_ROLE('creation_date');
#211=CC_DESIGN_DATE_AND_TIME_ASSIGNMENT(#214,#208,(#383));
#212=CC_DESIGN_DATE_AND_TIME_ASSIGNMENT(#215,#209,(#384));
#213=CC_DESIGN_DATE_AND_TIME_ASSIGNMENT(#216,#210,(#385));
#214=DATE_AND_TIME(#217,#220);
#215=DATE_AND_TIME(#218,#221);
#216=DATE_AND_TIME(#219,#222);
#217=CALENDAR_DATE(2021,25,5);
#218=CALENDAR_DATE(2021,25,5);
#219=CALENDAR_DATE(2021,25,5);
#220=LOCAL_TIME(0,0,0.,#223);
#221=LOCAL_TIME(0,0,0.,#224);
#222=LOCAL_TIME(0,0,0.,#225);
#223=COORDINATED_UNIVERSAL_TIME_OFFSET(0,0,.BEHIND.);
#224=COORDINATED_UNIVERSAL_TIME_OFFSET(0,0,.BEHIND.);
#225=COORDINATED_UNIVERSAL_TIME_OFFSET(0,0,.BEHIND.);
#226=AXIS2_PLACEMENT_3D('placement',#315,#254,#255);
#227=AXIS2_PLACEMENT_3D('placement',#316,#256,#257);
#228=AXIS2_PLACEMENT_3D('',#317,#258,#259);
#229=AXIS2_PLACEMENT_3D('',#319,#260,#261);
#230=AXIS2_PLACEMENT_3D('',#321,#262,#263);
#231=AXIS2_PLACEMENT_3D('',#322,#264,#265);
#232=AXIS2_PLACEMENT_3D('',#324,#266,#267);
#233=AXIS2_PLACEMENT_3D('',#326,#269,#270);
#234=AXIS2_PLACEMENT_3D('',#328,#271,#272);
#235=AXIS2_PLACEMENT_3D('',#330,#274,#275);
#236=AXIS2_PLACEMENT_3D('placement',#331,#276,#277);
#237=AXIS2_PLACEMENT_3D('',#332,#278,#279);
#238=AXIS2_PLACEMENT_3D('',#334,#280,#281);
#239=AXIS2_PLACEMENT_3D('',#336,#282,#283);
#240=AXIS2_PLACEMENT_3D('',#337,#284,#285);
#241=AXIS2_PLACEMENT_3D('',#338,#286,#287);
#242=AXIS2_PLACEMENT_3D('',#341,#289,#290);
#243=AXIS2_PLACEMENT_3D('',#342,#291,#292);
#244=AXIS2_PLACEMENT_3D('',#344,#293,#294);
#245=AXIS2_PLACEMENT_3D('',#345,#295,#296);
#246=AXIS2_PLACEMENT_3D('',#348,#298,#299);
#247=AXIS2_PLACEMENT_3D('',#349,#300,#301);
#248=AXIS2_PLACEMENT_3D('',#351,#302,#303);
#249=AXIS2_PLACEMENT_3D('',#352,#304,#305);
#250=AXIS2_PLACEMENT_3D('',#355,#307,#308);
#251=AXIS2_PLACEMENT_3D('',#356,#309,#310);
#252=AXIS2_PLACEMENT_3D('',#357,#311,#312);
#253=AXIS2_PLACEMENT_3D('',#358,#313,#314);
#254=DIRECTION('axis',(0.,0.,1.));
#255=DIRECTION('refdir',(1.,0.,0.));
#256=DIRECTION('axis',(0.,0.,1.));
#257=DIRECTION('refdir',(1.,0.,0.));
#258=DIRECTION('center_axis',(0.,0.,1.));
#259=DIRECTION('ref_axis',(1.,0.,0.));
#260=DIRECTION('center_axis',(0.,0.,-1.));
#261=DIRECTION('ref_axis',(1.,0.,0.));
#262=DIRECTION('center_axis',(0.,0.,1.));
#263=DIRECTION('ref_axis',(-1.,0.,0.));
#264=DIRECTION('center_axis',(0.,0.,1.));
#265=DIRECTION('ref_axis',(-1.,0.,0.));
#266=DIRECTION('center_axis',(0.,0.,-1.));
#267=DIRECTION('ref_axis',(-1.,0.,0.));
#268=DIRECTION('',(0.,0.,-1.));
#269=DIRECTION('center_axis',(0.,0.,1.));
#270=DIRECTION('ref_axis',(1.,0.,0.));
#271=DIRECTION('center_axis',(0.,0.,1.));
#272=DIRECTION('ref_axis',(1.,0.,0.));
#273=DIRECTION('',(0.,0.,-1.));
#274=DIRECTION('center_axis',(0.,0.,1.));
#275=DIRECTION('ref_axis',(1.,0.,0.));
#276=DIRECTION('axis',(0.,0.,1.));
#277=DIRECTION('refdir',(1.,0.,0.));
#278=DIRECTION('center_axis',(0.,0.,1.));
#279=DIRECTION('ref_axis',(1.,0.,0.));
#280=DIRECTION('center_axis',(0.,0.,-1.));
#281=DIRECTION('ref_axis',(-1.,1.22464679914735E-16,0.));
#282=DIRECTION('center_axis',(1.22464679914735E-16,-1.,0.));
#283=DIRECTION('ref_axis',(-1.,-1.22464679914735E-16,0.));
#284=DIRECTION('center_axis',(0.,0.,1.));
#285=DIRECTION('ref_axis',(-1.,1.22464679914735E-16,0.));
#286=DIRECTION('center_axis',(0.,0.,1.));
#287=DIRECTION('ref_axis',(1.,0.,0.));
#288=DIRECTION('',(0.,0.,-1.));
#289=DIRECTION('center_axis',(0.,0.,1.));
#290=DIRECTION('ref_axis',(1.,0.,0.));
#291=DIRECTION('center_axis',(0.,0.,1.));
#292=DIRECTION('ref_axis',(1.,0.,0.));
#293=DIRECTION('center_axis',(0.,0.,1.));
#294=DIRECTION('ref_axis',(1.,0.,0.));
#295=DIRECTION('center_axis',(0.,0.,1.));
#296=DIRECTION('ref_axis',(1.,0.,0.));
#297=DIRECTION('',(0.,0.,-1.));
#298=DIRECTION('center_axis',(0.,0.,1.));
#299=DIRECTION('ref_axis',(1.,0.,0.));
#300=DIRECTION('center_axis',(0.,0.,-1.));
#301=DIRECTION('ref_axis',(-1.,0.,0.));
#302=DIRECTION('center_axis',(0.,0.,1.));
#303=DIRECTION('ref_axis',(1.,0.,0.));
#304=DIRECTION('center_axis',(0.,0.,1.));
#305=DIRECTION('ref_axis',(1.,0.,0.));
#306=DIRECTION('',(0.,0.,-1.));
#307=DIRECTION('center_axis',(0.,0.,1.));
#308=DIRECTION('ref_axis',(1.,0.,0.));
#309=DIRECTION('center_axis',(0.,0.,-1.));
#310=DIRECTION('ref_axis',(-1.,0.,0.));
#311=DIRECTION('',(0.,0.,1.));
#312=DIRECTION('',(1.,0.,0.));
#313=DIRECTION('',(1.70349237979413E-16,-2.35158204078904E-16,1.));
#314=DIRECTION('',(0.988747991714772,0.149590804797638,-1.33254961939356E-16));
#315=CARTESIAN_POINT('',(0.,0.,0.));
#316=CARTESIAN_POINT('',(0.,0.,0.));
#317=CARTESIAN_POINT('Origin',(0.,0.,-2.));
#318=CARTESIAN_POINT('',(-16.,-1.95943487863577E-15,-2.));
#319=CARTESIAN_POINT('Origin',(0.,0.,-2.));
#320=CARTESIAN_POINT('',(5.25,6.42939569552361E-16,-2.));
#321=CARTESIAN_POINT('Origin',(0.,0.,-2.));
#322=CARTESIAN_POINT('Origin',(0.,0.,0.));
#323=CARTESIAN_POINT('',(5.25,6.42939569552361E-16,2.));
#324=CARTESIAN_POINT('Origin',(0.,0.,2.));
#325=CARTESIAN_POINT('',(5.25,6.42939569552361E-16,0.));
#326=CARTESIAN_POINT('Origin',(0.,0.,0.));
#327=CARTESIAN_POINT('',(-16.,-1.95943487863577E-15,2.));
#328=CARTESIAN_POINT('Origin',(0.,0.,2.));
#329=CARTESIAN_POINT('',(-16.,-1.95943487863577E-15,0.));
#330=CARTESIAN_POINT('Origin',(0.,0.,2.));
#331=CARTESIAN_POINT('',(0.,0.,0.));
#332=CARTESIAN_POINT('Origin',(0.,0.,3.));
#333=CARTESIAN_POINT('',(-19.,-2.32682891837997E-15,4.));
#334=CARTESIAN_POINT('Origin',(0.,0.,4.));
#335=CARTESIAN_POINT('',(-20.,-2.44929359829471E-15,3.));
#336=CARTESIAN_POINT('Origin',(-19.,-2.32682891837997E-15,3.));
#337=CARTESIAN_POINT('Origin',(0.,0.,3.));
#338=CARTESIAN_POINT('Origin',(0.,0.,-1.66533453693773E-15));
#339=CARTESIAN_POINT('',(-20.,-2.44929359829471E-15,-4.));
#340=CARTESIAN_POINT('',(-20.,-2.44929359829471E-15,-1.66533453693773E-15));
#341=CARTESIAN_POINT('Origin',(0.,0.,-4.));
#342=CARTESIAN_POINT('Origin',(2.75,0.,4.));
#343=CARTESIAN_POINT('',(-2.75,-3.36777869765522E-16,4.));
#344=CARTESIAN_POINT('Origin',(0.,0.,4.));
#345=CARTESIAN_POINT('Origin',(0.,0.,2.));
#346=CARTESIAN_POINT('',(-2.75,-3.36777869765522E-16,5.55111512312578E-16));
#347=CARTESIAN_POINT('',(-2.75,-3.36777869765522E-16,2.));
#348=CARTESIAN_POINT('Origin',(0.,0.,5.55111512312578E-16));
#349=CARTESIAN_POINT('Origin',(16.,0.,0.));
#350=CARTESIAN_POINT('',(-16.,-1.95943487863577E-15,0.));
#351=CARTESIAN_POINT('Origin',(0.,0.,0.));
#352=CARTESIAN_POINT('Origin',(0.,0.,-2.));
#353=CARTESIAN_POINT('',(-16.,-1.95943487863577E-15,-4.));
#354=CARTESIAN_POINT('',(-16.,-1.95943487863577E-15,-2.));
#355=CARTESIAN_POINT('Origin',(0.,0.,-4.));
#356=CARTESIAN_POINT('Origin',(20.,0.,-4.));
#357=CARTESIAN_POINT('',(0.,0.,0.));
#358=CARTESIAN_POINT('',(-1.09990066762689E-31,1.54074395550979E-31,2.));
#359=UNCERTAINTY_MEASURE_WITH_UNIT(LENGTH_MEASURE(0.01),#367,
'DISTANCE_ACCURACY_VALUE',
'Maximum model space distance between geometric entities at asserted c
onnectivities');
#360=UNCERTAINTY_MEASURE_WITH_UNIT(LENGTH_MEASURE(0.01),#367,
'DISTANCE_ACCURACY_VALUE',
'Maximum model space distance between geometric entities at asserted c
onnectivities');
#361=UNCERTAINTY_MEASURE_WITH_UNIT(LENGTH_MEASURE(0.01),#367,
'DISTANCE_ACCURACY_VALUE',
'Maximum model space distance between geometric entities at asserted c
onnectivities');
#362=UNCERTAINTY_MEASURE_WITH_UNIT(LENGTH_MEASURE(0.01),#367,
'DISTANCE_ACCURACY_VALUE',
'Maximum model space distance between geometric entities at asserted c
onnectivities');
#363=(
GEOMETRIC_REPRESENTATION_CONTEXT(3)
GLOBAL_UNCERTAINTY_ASSIGNED_CONTEXT((#359))
GLOBAL_UNIT_ASSIGNED_CONTEXT((#367,#369,#370))
REPRESENTATION_CONTEXT('','3D')
);
#364=(
GEOMETRIC_REPRESENTATION_CONTEXT(3)
GLOBAL_UNCERTAINTY_ASSIGNED_CONTEXT((#360))
GLOBAL_UNIT_ASSIGNED_CONTEXT((#367,#369,#370))
REPRESENTATION_CONTEXT('','3D')
);
#365=(
GEOMETRIC_REPRESENTATION_CONTEXT(3)
GLOBAL_UNCERTAINTY_ASSIGNED_CONTEXT((#361))
GLOBAL_UNIT_ASSIGNED_CONTEXT((#367,#369,#370))
REPRESENTATION_CONTEXT('','3D')
);
#366=(
GEOMETRIC_REPRESENTATION_CONTEXT(3)
GLOBAL_UNCERTAINTY_ASSIGNED_CONTEXT((#362))
GLOBAL_UNIT_ASSIGNED_CONTEXT((#367,#369,#370))
REPRESENTATION_CONTEXT('','3D')
);
#367=(
LENGTH_UNIT()
NAMED_UNIT(*)
SI_UNIT(.MILLI.,.METRE.)
);
#368=(
LENGTH_UNIT()
NAMED_UNIT(*)
SI_UNIT(.CENTI.,.METRE.)
);
#369=(
NAMED_UNIT(*)
PLANE_ANGLE_UNIT()
SI_UNIT($,.RADIAN.)
);
#370=(
NAMED_UNIT(*)
SI_UNIT($,.STERADIAN.)
SOLID_ANGLE_UNIT()
);
#371=SHAPE_DEFINITION_REPRESENTATION(#374,#379);
#372=SHAPE_DEFINITION_REPRESENTATION(#375,#380);
#373=SHAPE_DEFINITION_REPRESENTATION(#376,#381);
#374=PRODUCT_DEFINITION_SHAPE('',$,#383);
#375=PRODUCT_DEFINITION_SHAPE('',$,#384);
#376=PRODUCT_DEFINITION_SHAPE('',$,#385);
#377=PRODUCT_DEFINITION_SHAPE($,$,#17);
#378=PRODUCT_DEFINITION_SHAPE($,$,#18);
#379=SHAPE_REPRESENTATION('',(#226,#252,#253),#363);
#380=SHAPE_REPRESENTATION('',(#227),#364);
#381=SHAPE_REPRESENTATION('',(#236),#365);
#382=DESIGN_CONTEXT('part definition',#393,'design');
#383=PRODUCT_DEFINITION('GM17114','GM17114',#386,#382);
#384=PRODUCT_DEFINITION('E0143060','E0143060',#387,#382);
#385=PRODUCT_DEFINITION('E0143061','E0143061',#388,#382);
#386=PRODUCT_DEFINITION_FORMATION('-',$,#395);
#387=PRODUCT_DEFINITION_FORMATION('-',$,#396);
#388=PRODUCT_DEFINITION_FORMATION('-',$,#397);
#389=PRODUCT_RELATED_PRODUCT_CATEGORY('GM17114','GM17114',(#395));
#390=PRODUCT_RELATED_PRODUCT_CATEGORY('E0143060','E0143060',(#396));
#391=PRODUCT_RELATED_PRODUCT_CATEGORY('E0143061','E0143061',(#397));
#392=APPLICATION_PROTOCOL_DEFINITION('international standard',
'ap203_configuration_controlled_3d_design_of_mechanical_parts_and_asse
mblies_mim_lf',2004,#393);
#393=APPLICATION_CONTEXT(
'Configuration Controlled 3D Design of Mechanical Parts and Assemblies');
#394=MECHANICAL_CONTEXT('part definition',#393,'mechanical');
#395=PRODUCT('GM17114','GM17114',$,(#394));
#396=PRODUCT('E0143060','E0143060',$,(#394));
#397=PRODUCT('E0143061','E0143061',$,(#394));
ENDSEC;
END-ISO-10303-21;
