ISO-10303-21;
HEADER;
/* Generated by software containing ST-Developer
 * from STEP Tools, Inc. (www.steptools.com) 
 */

FILE_DESCRIPTION(
/* description */ (''),
/* implementation_level */ '2;1');

FILE_NAME(
/* name */ 
'C:\\Workspace\\Documents\\Products\\Handling\\Pot magnets\\GM17201\\G
M17201 A.stp',
/* time_stamp */ '2020-03-16T09:19:38+01:00',
/* author */ ('pb'),
/* organization */ (''),
/* preprocessor_version */ 'ST-DEVELOPER v17.2',
/* originating_system */ 'Autodesk Inventor 2019',
/* authorisation */ '');

FILE_SCHEMA (('AUTOMOTIVE_DESIGN { 1 0 10303 214 3 1 1 }'));
ENDSEC;

DATA;
#10=MECHANICAL_DESIGN_GEOMETRIC_PRESENTATION_REPRESENTATION('',(#29,#30,
#31,#32,#33,#34),#553);
#11=ITEM_DEFINED_TRANSFORMATION($,$,#344,#381);
#12=ITEM_DEFINED_TRANSFORMATION($,$,#366,#382);
#13=ITEM_DEFINED_TRANSFORMATION($,$,#372,#383);
#14=(
REPRESENTATION_RELATIONSHIP($,$,#570,#569)
REPRESENTATION_RELATIONSHIP_WITH_TRANSFORMATION(#11)
SHAPE_REPRESENTATION_RELATIONSHIP()
);
#15=(
REPRESENTATION_RELATIONSHIP($,$,#571,#569)
REPRESENTATION_RELATIONSHIP_WITH_TRANSFORMATION(#12)
SHAPE_REPRESENTATION_RELATIONSHIP()
);
#16=(
REPRESENTATION_RELATIONSHIP($,$,#572,#569)
REPRESENTATION_RELATIONSHIP_WITH_TRANSFORMATION(#13)
SHAPE_REPRESENTATION_RELATIONSHIP()
);
#17=CONTEXT_DEPENDENT_SHAPE_REPRESENTATION(#14,#566);
#18=CONTEXT_DEPENDENT_SHAPE_REPRESENTATION(#15,#567);
#19=CONTEXT_DEPENDENT_SHAPE_REPRESENTATION(#16,#568);
#20=NEXT_ASSEMBLY_USAGE_OCCURRENCE('E0119274/- - OUTER HOUSING:1',
'E0119274/- - OUTER HOUSING:1','E0119274/- - OUTER HOUSING:1',#574,#575,
'E0119274/- - OUTER HOUSING:1');
#21=NEXT_ASSEMBLY_USAGE_OCCURRENCE('E0119273/- - MAGNET:1',
'E0119273/- - MAGNET:1','E0119273/- - MAGNET:1',#574,#576,
'E0119273/- - MAGNET:1');
#22=NEXT_ASSEMBLY_USAGE_OCCURRENCE('E0119272/- - GLUE:1',
'E0119272/- - GLUE:1','E0119272/- - GLUE:1',#574,#577,
'E0119272/- - GLUE:1');
#23=SHAPE_REPRESENTATION_RELATIONSHIP('SRR','None',#570,#26);
#24=SHAPE_REPRESENTATION_RELATIONSHIP('SRR','None',#571,#27);
#25=SHAPE_REPRESENTATION_RELATIONSHIP('SRR','None',#572,#28);
#26=ADVANCED_BREP_SHAPE_REPRESENTATION('',(#35),#550);
#27=ADVANCED_BREP_SHAPE_REPRESENTATION('',(#36),#551);
#28=ADVANCED_BREP_SHAPE_REPRESENTATION('',(#37),#552);
#29=STYLED_ITEM('',(#283),#35);
#30=STYLED_ITEM('',(#284),#239);
#31=STYLED_ITEM('',(#285),#240);
#32=STYLED_ITEM('',(#285),#241);
#33=STYLED_ITEM('',(#283),#36);
#34=STYLED_ITEM('',(#286),#37);
#35=MANIFOLD_SOLID_BREP('Solid2',#246);
#36=MANIFOLD_SOLID_BREP('Solid2',#247);
#37=MANIFOLD_SOLID_BREP('Solid2',#248);
#38=FACE_BOUND('',#74,.T.);
#39=FACE_BOUND('',#77,.T.);
#40=FACE_BOUND('',#88,.T.);
#41=FACE_BOUND('',#90,.T.);
#42=PLANE('',#352);
#43=PLANE('',#357);
#44=PLANE('',#361);
#45=PLANE('',#370);
#46=PLANE('',#371);
#47=PLANE('',#379);
#48=PLANE('',#380);
#49=CYLINDRICAL_SURFACE('',#349,3.);
#50=CYLINDRICAL_SURFACE('',#359,2.6);
#51=CYLINDRICAL_SURFACE('',#365,1.25);
#52=CYLINDRICAL_SURFACE('',#367,2.5);
#53=CYLINDRICAL_SURFACE('',#373,2.5);
#54=CYLINDRICAL_SURFACE('',#376,2.6);
#55=FACE_OUTER_BOUND('',#71,.T.);
#56=FACE_OUTER_BOUND('',#72,.T.);
#57=FACE_OUTER_BOUND('',#73,.T.);
#58=FACE_OUTER_BOUND('',#75,.T.);
#59=FACE_OUTER_BOUND('',#76,.T.);
#60=FACE_OUTER_BOUND('',#78,.T.);
#61=FACE_OUTER_BOUND('',#79,.T.);
#62=FACE_OUTER_BOUND('',#80,.T.);
#63=FACE_OUTER_BOUND('',#81,.T.);
#64=FACE_OUTER_BOUND('',#82,.T.);
#65=FACE_OUTER_BOUND('',#83,.T.);
#66=FACE_OUTER_BOUND('',#84,.T.);
#67=FACE_OUTER_BOUND('',#85,.T.);
#68=FACE_OUTER_BOUND('',#86,.T.);
#69=FACE_OUTER_BOUND('',#87,.T.);
#70=FACE_OUTER_BOUND('',#89,.T.);
#71=EDGE_LOOP('',(#173,#174,#175,#176,#177));
#72=EDGE_LOOP('',(#178,#179,#180,#181,#182,#183));
#73=EDGE_LOOP('',(#184));
#74=EDGE_LOOP('',(#185,#186));
#75=EDGE_LOOP('',(#187,#188,#189,#190,#191));
#76=EDGE_LOOP('',(#192));
#77=EDGE_LOOP('',(#193));
#78=EDGE_LOOP('',(#194,#195,#196,#197));
#79=EDGE_LOOP('',(#198));
#80=EDGE_LOOP('',(#199,#200,#201,#202));
#81=EDGE_LOOP('',(#203,#204,#205,#206,#207,#208));
#82=EDGE_LOOP('',(#209,#210,#211,#212));
#83=EDGE_LOOP('',(#213));
#84=EDGE_LOOP('',(#214));
#85=EDGE_LOOP('',(#215,#216,#217,#218));
#86=EDGE_LOOP('',(#219,#220,#221,#222));
#87=EDGE_LOOP('',(#223));
#88=EDGE_LOOP('',(#224));
#89=EDGE_LOOP('',(#225));
#90=EDGE_LOOP('',(#226));
#91=LINE('',#483,#100);
#92=LINE('',#490,#101);
#93=LINE('',#499,#102);
#94=LINE('',#505,#103);
#95=LINE('',#513,#104);
#96=LINE('',#516,#105);
#97=LINE('',#522,#106);
#98=LINE('',#531,#107);
#99=LINE('',#537,#108);
#100=VECTOR('',#394,2.9);
#101=VECTOR('',#403,3.);
#102=VECTOR('',#414,2.95);
#103=VECTOR('',#421,2.6);
#104=VECTOR('',#430,0.625);
#105=VECTOR('',#435,1.25);
#106=VECTOR('',#442,2.5);
#107=VECTOR('',#455,2.5);
#108=VECTOR('',#462,2.6);
#109=CIRCLE('',#346,3.);
#110=CIRCLE('',#347,3.);
#111=CIRCLE('',#348,2.8);
#112=CIRCLE('',#350,3.);
#113=CIRCLE('',#351,3.);
#114=CIRCLE('',#353,1.25);
#115=CIRCLE('',#354,1.25);
#116=CIRCLE('',#356,2.9);
#117=CIRCLE('',#358,2.6);
#118=CIRCLE('',#360,2.6);
#119=CIRCLE('',#363,1.25);
#120=CIRCLE('',#364,1.25);
#121=CIRCLE('',#368,2.5);
#122=CIRCLE('',#369,2.5);
#123=CIRCLE('',#374,2.5);
#124=CIRCLE('',#375,2.5);
#125=CIRCLE('',#377,2.6);
#126=CIRCLE('',#378,2.6);
#127=VERTEX_POINT('',#478);
#128=VERTEX_POINT('',#479);
#129=VERTEX_POINT('',#482);
#130=VERTEX_POINT('',#486);
#131=VERTEX_POINT('',#487);
#132=VERTEX_POINT('',#492);
#133=VERTEX_POINT('',#493);
#134=VERTEX_POINT('',#497);
#135=VERTEX_POINT('',#501);
#136=VERTEX_POINT('',#504);
#137=VERTEX_POINT('',#509);
#138=VERTEX_POINT('',#510);
#139=VERTEX_POINT('',#512);
#140=VERTEX_POINT('',#519);
#141=VERTEX_POINT('',#521);
#142=VERTEX_POINT('',#528);
#143=VERTEX_POINT('',#530);
#144=VERTEX_POINT('',#534);
#145=VERTEX_POINT('',#536);
#146=EDGE_CURVE('',#127,#128,#109,.T.);
#147=EDGE_CURVE('',#128,#127,#110,.T.);
#148=EDGE_CURVE('',#127,#129,#91,.T.);
#149=EDGE_CURVE('',#129,#129,#111,.T.);
#150=EDGE_CURVE('',#130,#131,#112,.T.);
#151=EDGE_CURVE('',#131,#130,#113,.T.);
#152=EDGE_CURVE('',#131,#128,#92,.T.);
#153=EDGE_CURVE('',#132,#133,#114,.T.);
#154=EDGE_CURVE('',#133,#132,#115,.T.);
#155=EDGE_CURVE('',#134,#134,#116,.T.);
#156=EDGE_CURVE('',#134,#130,#93,.T.);
#157=EDGE_CURVE('',#135,#135,#117,.T.);
#158=EDGE_CURVE('',#135,#136,#94,.T.);
#159=EDGE_CURVE('',#136,#136,#118,.T.);
#160=EDGE_CURVE('',#137,#138,#119,.T.);
#161=EDGE_CURVE('',#138,#139,#95,.T.);
#162=EDGE_CURVE('',#138,#137,#120,.T.);
#163=EDGE_CURVE('',#133,#138,#96,.T.);
#164=EDGE_CURVE('',#140,#140,#121,.T.);
#165=EDGE_CURVE('',#140,#141,#97,.T.);
#166=EDGE_CURVE('',#141,#141,#122,.T.);
#167=EDGE_CURVE('',#142,#142,#123,.T.);
#168=EDGE_CURVE('',#142,#143,#98,.T.);
#169=EDGE_CURVE('',#143,#143,#124,.T.);
#170=EDGE_CURVE('',#144,#144,#125,.T.);
#171=EDGE_CURVE('',#144,#145,#99,.T.);
#172=EDGE_CURVE('',#145,#145,#126,.T.);
#173=ORIENTED_EDGE('',*,*,#146,.T.);
#174=ORIENTED_EDGE('',*,*,#147,.T.);
#175=ORIENTED_EDGE('',*,*,#148,.T.);
#176=ORIENTED_EDGE('',*,*,#149,.T.);
#177=ORIENTED_EDGE('',*,*,#148,.F.);
#178=ORIENTED_EDGE('',*,*,#150,.F.);
#179=ORIENTED_EDGE('',*,*,#151,.F.);
#180=ORIENTED_EDGE('',*,*,#152,.T.);
#181=ORIENTED_EDGE('',*,*,#146,.F.);
#182=ORIENTED_EDGE('',*,*,#147,.F.);
#183=ORIENTED_EDGE('',*,*,#152,.F.);
#184=ORIENTED_EDGE('',*,*,#149,.F.);
#185=ORIENTED_EDGE('',*,*,#153,.T.);
#186=ORIENTED_EDGE('',*,*,#154,.T.);
#187=ORIENTED_EDGE('',*,*,#155,.T.);
#188=ORIENTED_EDGE('',*,*,#156,.T.);
#189=ORIENTED_EDGE('',*,*,#150,.T.);
#190=ORIENTED_EDGE('',*,*,#151,.T.);
#191=ORIENTED_EDGE('',*,*,#156,.F.);
#192=ORIENTED_EDGE('',*,*,#155,.F.);
#193=ORIENTED_EDGE('',*,*,#157,.T.);
#194=ORIENTED_EDGE('',*,*,#157,.F.);
#195=ORIENTED_EDGE('',*,*,#158,.T.);
#196=ORIENTED_EDGE('',*,*,#159,.T.);
#197=ORIENTED_EDGE('',*,*,#158,.F.);
#198=ORIENTED_EDGE('',*,*,#159,.F.);
#199=ORIENTED_EDGE('',*,*,#160,.T.);
#200=ORIENTED_EDGE('',*,*,#161,.T.);
#201=ORIENTED_EDGE('',*,*,#161,.F.);
#202=ORIENTED_EDGE('',*,*,#162,.T.);
#203=ORIENTED_EDGE('',*,*,#153,.F.);
#204=ORIENTED_EDGE('',*,*,#154,.F.);
#205=ORIENTED_EDGE('',*,*,#163,.T.);
#206=ORIENTED_EDGE('',*,*,#160,.F.);
#207=ORIENTED_EDGE('',*,*,#162,.F.);
#208=ORIENTED_EDGE('',*,*,#163,.F.);
#209=ORIENTED_EDGE('',*,*,#164,.F.);
#210=ORIENTED_EDGE('',*,*,#165,.T.);
#211=ORIENTED_EDGE('',*,*,#166,.F.);
#212=ORIENTED_EDGE('',*,*,#165,.F.);
#213=ORIENTED_EDGE('',*,*,#166,.T.);
#214=ORIENTED_EDGE('',*,*,#164,.T.);
#215=ORIENTED_EDGE('',*,*,#167,.F.);
#216=ORIENTED_EDGE('',*,*,#168,.T.);
#217=ORIENTED_EDGE('',*,*,#169,.F.);
#218=ORIENTED_EDGE('',*,*,#168,.F.);
#219=ORIENTED_EDGE('',*,*,#170,.F.);
#220=ORIENTED_EDGE('',*,*,#171,.T.);
#221=ORIENTED_EDGE('',*,*,#172,.F.);
#222=ORIENTED_EDGE('',*,*,#171,.F.);
#223=ORIENTED_EDGE('',*,*,#172,.T.);
#224=ORIENTED_EDGE('',*,*,#167,.T.);
#225=ORIENTED_EDGE('',*,*,#170,.T.);
#226=ORIENTED_EDGE('',*,*,#169,.T.);
#227=CONICAL_SURFACE('',#345,2.9,0.78539816339745);
#228=CONICAL_SURFACE('',#355,2.95,0.785398163397443);
#229=CONICAL_SURFACE('',#362,0.625,1.02974425867665);
#230=ADVANCED_FACE('',(#55),#227,.T.);
#231=ADVANCED_FACE('',(#56),#49,.T.);
#232=ADVANCED_FACE('',(#57,#38),#42,.T.);
#233=ADVANCED_FACE('',(#58),#228,.T.);
#234=ADVANCED_FACE('',(#59,#39),#43,.T.);
#235=ADVANCED_FACE('',(#60),#50,.F.);
#236=ADVANCED_FACE('',(#61),#44,.F.);
#237=ADVANCED_FACE('',(#62),#229,.F.);
#238=ADVANCED_FACE('',(#63),#51,.F.);
#239=ADVANCED_FACE('',(#64),#52,.T.);
#240=ADVANCED_FACE('',(#65),#45,.F.);
#241=ADVANCED_FACE('',(#66),#46,.T.);
#242=ADVANCED_FACE('',(#67),#53,.F.);
#243=ADVANCED_FACE('',(#68),#54,.T.);
#244=ADVANCED_FACE('',(#69,#40),#47,.F.);
#245=ADVANCED_FACE('',(#70,#41),#48,.T.);
#246=CLOSED_SHELL('',(#230,#231,#232,#233,#234,#235,#236,#237,#238));
#247=CLOSED_SHELL('',(#239,#240,#241));
#248=CLOSED_SHELL('',(#242,#243,#244,#245));
#249=DERIVED_UNIT_ELEMENT(#255,1.);
#250=DERIVED_UNIT_ELEMENT(#555,3.);
#251=DERIVED_UNIT_ELEMENT(#255,1.);
#252=DERIVED_UNIT_ELEMENT(#555,3.);
#253=DERIVED_UNIT_ELEMENT(#255,1.);
#254=DERIVED_UNIT_ELEMENT(#555,3.);
#255=(
MASS_UNIT()
NAMED_UNIT(*)
SI_UNIT($,.GRAM.)
);
#256=DERIVED_UNIT((#249,#250));
#257=DERIVED_UNIT((#251,#252));
#258=DERIVED_UNIT((#253,#254));
#259=MEASURE_REPRESENTATION_ITEM('density measure',
POSITIVE_RATIO_MEASURE(7.85),#256);
#260=MEASURE_REPRESENTATION_ITEM('density measure',
POSITIVE_RATIO_MEASURE(7.85),#257);
#261=MEASURE_REPRESENTATION_ITEM('density measure',
POSITIVE_RATIO_MEASURE(1.),#258);
#262=PROPERTY_DEFINITION_REPRESENTATION(#277,#268);
#263=PROPERTY_DEFINITION_REPRESENTATION(#278,#269);
#264=PROPERTY_DEFINITION_REPRESENTATION(#279,#270);
#265=PROPERTY_DEFINITION_REPRESENTATION(#280,#271);
#266=PROPERTY_DEFINITION_REPRESENTATION(#281,#272);
#267=PROPERTY_DEFINITION_REPRESENTATION(#282,#273);
#268=REPRESENTATION('material name',(#274),#550);
#269=REPRESENTATION('density',(#259),#550);
#270=REPRESENTATION('material name',(#275),#551);
#271=REPRESENTATION('density',(#260),#551);
#272=REPRESENTATION('material name',(#276),#552);
#273=REPRESENTATION('density',(#261),#552);
#274=DESCRIPTIVE_REPRESENTATION_ITEM('Steel, Carbon','Steel, Carbon');
#275=DESCRIPTIVE_REPRESENTATION_ITEM('Steel, Carbon','Steel, Carbon');
#276=DESCRIPTIVE_REPRESENTATION_ITEM('PE','PE');
#277=PROPERTY_DEFINITION('material property','material name',#575);
#278=PROPERTY_DEFINITION('material property','density of part',#575);
#279=PROPERTY_DEFINITION('material property','material name',#576);
#280=PROPERTY_DEFINITION('material property','density of part',#576);
#281=PROPERTY_DEFINITION('material property','material name',#577);
#282=PROPERTY_DEFINITION('material property','density of part',#577);
#283=PRESENTATION_STYLE_ASSIGNMENT((#287));
#284=PRESENTATION_STYLE_ASSIGNMENT((#288));
#285=PRESENTATION_STYLE_ASSIGNMENT((#289));
#286=PRESENTATION_STYLE_ASSIGNMENT((#290));
#287=SURFACE_STYLE_USAGE(.BOTH.,#299);
#288=SURFACE_STYLE_USAGE(.BOTH.,#300);
#289=SURFACE_STYLE_USAGE(.BOTH.,#301);
#290=SURFACE_STYLE_USAGE(.BOTH.,#302);
#291=SURFACE_STYLE_RENDERING_WITH_PROPERTIES($,#315,(#295));
#292=SURFACE_STYLE_RENDERING_WITH_PROPERTIES($,#316,(#296));
#293=SURFACE_STYLE_RENDERING_WITH_PROPERTIES($,#317,(#297));
#294=SURFACE_STYLE_RENDERING_WITH_PROPERTIES($,#318,(#298));
#295=SURFACE_STYLE_TRANSPARENT(0.);
#296=SURFACE_STYLE_TRANSPARENT(0.);
#297=SURFACE_STYLE_TRANSPARENT(0.);
#298=SURFACE_STYLE_TRANSPARENT(0.);
#299=SURFACE_SIDE_STYLE('',(#303,#291));
#300=SURFACE_SIDE_STYLE('',(#304,#292));
#301=SURFACE_SIDE_STYLE('',(#305,#293));
#302=SURFACE_SIDE_STYLE('',(#306,#294));
#303=SURFACE_STYLE_FILL_AREA(#307);
#304=SURFACE_STYLE_FILL_AREA(#308);
#305=SURFACE_STYLE_FILL_AREA(#309);
#306=SURFACE_STYLE_FILL_AREA(#310);
#307=FILL_AREA_STYLE('',(#311));
#308=FILL_AREA_STYLE('',(#312));
#309=FILL_AREA_STYLE('',(#313));
#310=FILL_AREA_STYLE('',(#314));
#311=FILL_AREA_STYLE_COLOUR('',#315);
#312=FILL_AREA_STYLE_COLOUR('',#316);
#313=FILL_AREA_STYLE_COLOUR('',#317);
#314=FILL_AREA_STYLE_COLOUR('',#318);
#315=COLOUR_RGB('',0.745098039215686,0.737254901960784,0.729411764705882);
#316=COLOUR_RGB('',0.501960784313725,1.,0.501960784313725);
#317=COLOUR_RGB('',0.501960784313725,1.,0.501960784313725);
#318=COLOUR_RGB('',0.,0.,0.);
#319=DATE_TIME_ROLE('creation_date');
#320=DATE_TIME_ROLE('creation_date');
#321=DATE_TIME_ROLE('creation_date');
#322=DATE_TIME_ROLE('creation_date');
#323=APPLIED_DATE_AND_TIME_ASSIGNMENT(#327,#319,(#574));
#324=APPLIED_DATE_AND_TIME_ASSIGNMENT(#328,#320,(#575));
#325=APPLIED_DATE_AND_TIME_ASSIGNMENT(#329,#321,(#576));
#326=APPLIED_DATE_AND_TIME_ASSIGNMENT(#330,#322,(#577));
#327=DATE_AND_TIME(#331,#335);
#328=DATE_AND_TIME(#332,#336);
#329=DATE_AND_TIME(#333,#337);
#330=DATE_AND_TIME(#334,#338);
#331=CALENDAR_DATE(2019,18,7);
#332=CALENDAR_DATE(2019,18,7);
#333=CALENDAR_DATE(2019,18,7);
#334=CALENDAR_DATE(2019,18,7);
#335=LOCAL_TIME(22,0,0.,#339);
#336=LOCAL_TIME(22,0,0.,#340);
#337=LOCAL_TIME(22,0,0.,#341);
#338=LOCAL_TIME(22,0,0.,#342);
#339=COORDINATED_UNIVERSAL_TIME_OFFSET(0,0,.BEHIND.);
#340=COORDINATED_UNIVERSAL_TIME_OFFSET(0,0,.BEHIND.);
#341=COORDINATED_UNIVERSAL_TIME_OFFSET(0,0,.BEHIND.);
#342=COORDINATED_UNIVERSAL_TIME_OFFSET(0,0,.BEHIND.);
#343=AXIS2_PLACEMENT_3D('placement',#475,#384,#385);
#344=AXIS2_PLACEMENT_3D('placement',#476,#386,#387);
#345=AXIS2_PLACEMENT_3D('',#477,#388,#389);
#346=AXIS2_PLACEMENT_3D('',#480,#390,#391);
#347=AXIS2_PLACEMENT_3D('',#481,#392,#393);
#348=AXIS2_PLACEMENT_3D('',#484,#395,#396);
#349=AXIS2_PLACEMENT_3D('',#485,#397,#398);
#350=AXIS2_PLACEMENT_3D('',#488,#399,#400);
#351=AXIS2_PLACEMENT_3D('',#489,#401,#402);
#352=AXIS2_PLACEMENT_3D('',#491,#404,#405);
#353=AXIS2_PLACEMENT_3D('',#494,#406,#407);
#354=AXIS2_PLACEMENT_3D('',#495,#408,#409);
#355=AXIS2_PLACEMENT_3D('',#496,#410,#411);
#356=AXIS2_PLACEMENT_3D('',#498,#412,#413);
#357=AXIS2_PLACEMENT_3D('',#500,#415,#416);
#358=AXIS2_PLACEMENT_3D('',#502,#417,#418);
#359=AXIS2_PLACEMENT_3D('',#503,#419,#420);
#360=AXIS2_PLACEMENT_3D('',#506,#422,#423);
#361=AXIS2_PLACEMENT_3D('',#507,#424,#425);
#362=AXIS2_PLACEMENT_3D('',#508,#426,#427);
#363=AXIS2_PLACEMENT_3D('',#511,#428,#429);
#364=AXIS2_PLACEMENT_3D('',#514,#431,#432);
#365=AXIS2_PLACEMENT_3D('',#515,#433,#434);
#366=AXIS2_PLACEMENT_3D('placement',#517,#436,#437);
#367=AXIS2_PLACEMENT_3D('',#518,#438,#439);
#368=AXIS2_PLACEMENT_3D('',#520,#440,#441);
#369=AXIS2_PLACEMENT_3D('',#523,#443,#444);
#370=AXIS2_PLACEMENT_3D('',#524,#445,#446);
#371=AXIS2_PLACEMENT_3D('',#525,#447,#448);
#372=AXIS2_PLACEMENT_3D('placement',#526,#449,#450);
#373=AXIS2_PLACEMENT_3D('',#527,#451,#452);
#374=AXIS2_PLACEMENT_3D('',#529,#453,#454);
#375=AXIS2_PLACEMENT_3D('',#532,#456,#457);
#376=AXIS2_PLACEMENT_3D('',#533,#458,#459);
#377=AXIS2_PLACEMENT_3D('',#535,#460,#461);
#378=AXIS2_PLACEMENT_3D('',#538,#463,#464);
#379=AXIS2_PLACEMENT_3D('',#539,#465,#466);
#380=AXIS2_PLACEMENT_3D('',#540,#467,#468);
#381=AXIS2_PLACEMENT_3D('',#541,#469,#470);
#382=AXIS2_PLACEMENT_3D('',#542,#471,#472);
#383=AXIS2_PLACEMENT_3D('',#543,#473,#474);
#384=DIRECTION('axis',(0.,0.,1.));
#385=DIRECTION('refdir',(1.,0.,0.));
#386=DIRECTION('axis',(0.,0.,1.));
#387=DIRECTION('refdir',(1.,0.,0.));
#388=DIRECTION('center_axis',(0.,-1.,0.));
#389=DIRECTION('ref_axis',(-1.,0.,0.));
#390=DIRECTION('center_axis',(0.,1.,0.));
#391=DIRECTION('ref_axis',(-1.,0.,0.));
#392=DIRECTION('center_axis',(0.,1.,0.));
#393=DIRECTION('ref_axis',(-1.,0.,0.));
#394=DIRECTION('',(-0.707106781186549,0.707106781186547,-8.65956056235495E-17));
#395=DIRECTION('center_axis',(0.,-1.,0.));
#396=DIRECTION('ref_axis',(-1.,0.,0.));
#397=DIRECTION('center_axis',(0.,-1.,0.));
#398=DIRECTION('ref_axis',(1.,0.,0.));
#399=DIRECTION('center_axis',(0.,-1.,0.));
#400=DIRECTION('ref_axis',(-1.,0.,0.));
#401=DIRECTION('center_axis',(0.,-1.,0.));
#402=DIRECTION('ref_axis',(-1.,0.,0.));
#403=DIRECTION('',(0.,1.,0.));
#404=DIRECTION('center_axis',(0.,1.,0.));
#405=DIRECTION('ref_axis',(0.,0.,1.));
#406=DIRECTION('center_axis',(0.,-1.,0.));
#407=DIRECTION('ref_axis',(1.,0.,0.));
#408=DIRECTION('center_axis',(0.,-1.,0.));
#409=DIRECTION('ref_axis',(1.,0.,0.));
#410=DIRECTION('center_axis',(0.,1.,0.));
#411=DIRECTION('ref_axis',(-1.,0.,0.));
#412=DIRECTION('center_axis',(0.,1.,0.));
#413=DIRECTION('ref_axis',(-1.,0.,0.));
#414=DIRECTION('',(0.707106781186544,0.707106781186552,8.65956056235489E-17));
#415=DIRECTION('center_axis',(0.,-1.,0.));
#416=DIRECTION('ref_axis',(0.,0.,-1.));
#417=DIRECTION('center_axis',(0.,1.,0.));
#418=DIRECTION('ref_axis',(-1.,0.,0.));
#419=DIRECTION('center_axis',(0.,1.,0.));
#420=DIRECTION('ref_axis',(-1.,0.,0.));
#421=DIRECTION('',(0.,1.,0.));
#422=DIRECTION('center_axis',(0.,1.,0.));
#423=DIRECTION('ref_axis',(-1.,0.,0.));
#424=DIRECTION('center_axis',(0.,1.,0.));
#425=DIRECTION('ref_axis',(0.,0.,1.));
#426=DIRECTION('center_axis',(0.,1.,0.));
#427=DIRECTION('ref_axis',(1.,0.,0.));
#428=DIRECTION('center_axis',(0.,1.,0.));
#429=DIRECTION('ref_axis',(1.,0.,0.));
#430=DIRECTION('',(0.857167300702112,-0.515038074910054,-1.04972719113862E-16));
#431=DIRECTION('center_axis',(0.,1.,0.));
#432=DIRECTION('ref_axis',(1.,0.,0.));
#433=DIRECTION('center_axis',(0.,1.,0.));
#434=DIRECTION('ref_axis',(1.,0.,0.));
#435=DIRECTION('',(0.,-1.,0.));
#436=DIRECTION('axis',(0.,0.,1.));
#437=DIRECTION('refdir',(1.,0.,0.));
#438=DIRECTION('center_axis',(0.,0.,1.));
#439=DIRECTION('ref_axis',(-1.,0.,0.));
#440=DIRECTION('center_axis',(0.,0.,1.));
#441=DIRECTION('ref_axis',(-1.,0.,0.));
#442=DIRECTION('',(0.,0.,-1.));
#443=DIRECTION('center_axis',(0.,0.,-1.));
#444=DIRECTION('ref_axis',(-1.,0.,0.));
#445=DIRECTION('center_axis',(0.,0.,1.));
#446=DIRECTION('ref_axis',(1.,0.,0.));
#447=DIRECTION('center_axis',(0.,0.,1.));
#448=DIRECTION('ref_axis',(1.,0.,0.));
#449=DIRECTION('axis',(0.,0.,1.));
#450=DIRECTION('refdir',(1.,0.,0.));
#451=DIRECTION('center_axis',(0.,1.,0.));
#452=DIRECTION('ref_axis',(1.,0.,0.));
#453=DIRECTION('center_axis',(0.,1.,0.));
#454=DIRECTION('ref_axis',(1.,0.,0.));
#455=DIRECTION('',(0.,1.,0.));
#456=DIRECTION('center_axis',(0.,-1.,0.));
#457=DIRECTION('ref_axis',(1.,0.,0.));
#458=DIRECTION('center_axis',(0.,1.,0.));
#459=DIRECTION('ref_axis',(1.,0.,0.));
#460=DIRECTION('center_axis',(0.,1.,0.));
#461=DIRECTION('ref_axis',(1.,0.,0.));
#462=DIRECTION('',(0.,-1.,0.));
#463=DIRECTION('center_axis',(0.,-1.,0.));
#464=DIRECTION('ref_axis',(1.,0.,0.));
#465=DIRECTION('center_axis',(0.,1.,0.));
#466=DIRECTION('ref_axis',(0.,0.,1.));
#467=DIRECTION('center_axis',(0.,1.,0.));
#468=DIRECTION('ref_axis',(0.,0.,1.));
#469=DIRECTION('',(0.,0.,1.));
#470=DIRECTION('',(1.,0.,0.));
#471=DIRECTION('',(0.,-1.,0.));
#472=DIRECTION('',(0.660749756857358,0.,0.750606260840491));
#473=DIRECTION('',(-0.180144574480588,0.,0.983640143693418));
#474=DIRECTION('',(0.983640143693418,0.,0.180144574480588));
#475=CARTESIAN_POINT('',(0.,0.,0.));
#476=CARTESIAN_POINT('',(0.,0.,0.));
#477=CARTESIAN_POINT('Origin',(0.,11.4,0.));
#478=CARTESIAN_POINT('',(3.,11.3,-3.67394039744206E-16));
#479=CARTESIAN_POINT('',(-3.,11.3,-3.67394039744206E-16));
#480=CARTESIAN_POINT('Origin',(0.,11.3,0.));
#481=CARTESIAN_POINT('Origin',(0.,11.3,0.));
#482=CARTESIAN_POINT('',(2.8,11.5,3.42901103761259E-16));
#483=CARTESIAN_POINT('',(2.9,11.4,3.55147571752732E-16));
#484=CARTESIAN_POINT('Origin',(0.,11.5,0.));
#485=CARTESIAN_POINT('Origin',(0.,5.75,0.));
#486=CARTESIAN_POINT('',(3.,0.1,3.67394039744206E-16));
#487=CARTESIAN_POINT('',(-3.,0.1,-3.67394039744206E-16));
#488=CARTESIAN_POINT('Origin',(0.,0.1,0.));
#489=CARTESIAN_POINT('Origin',(0.,0.1,0.));
#490=CARTESIAN_POINT('',(-3.,5.75,-3.67394039744206E-16));
#491=CARTESIAN_POINT('Origin',(3.,11.5,0.));
#492=CARTESIAN_POINT('',(1.25,11.5,0.));
#493=CARTESIAN_POINT('',(-1.25,11.5,1.53080849893419E-16));
#494=CARTESIAN_POINT('Origin',(0.,11.5,0.));
#495=CARTESIAN_POINT('Origin',(0.,11.5,0.));
#496=CARTESIAN_POINT('Origin',(0.,0.05,0.));
#497=CARTESIAN_POINT('',(2.9,0.,-3.55147571752733E-16));
#498=CARTESIAN_POINT('Origin',(0.,0.,0.));
#499=CARTESIAN_POINT('',(2.95,0.05,3.61270805748469E-16));
#500=CARTESIAN_POINT('Origin',(0.,0.,0.));
#501=CARTESIAN_POINT('',(2.6,0.,3.18408167778312E-16));
#502=CARTESIAN_POINT('Origin',(0.,0.,0.));
#503=CARTESIAN_POINT('Origin',(0.,0.,0.));
#504=CARTESIAN_POINT('',(2.6,2.8,3.18408167778312E-16));
#505=CARTESIAN_POINT('',(2.6,0.,-3.18408167778312E-16));
#506=CARTESIAN_POINT('Origin',(0.,2.8,0.));
#507=CARTESIAN_POINT('Origin',(-1.15494192236747E-16,2.8,0.));
#508=CARTESIAN_POINT('Origin',(0.,3.62446211310778,0.));
#509=CARTESIAN_POINT('',(1.25,4.,0.));
#510=CARTESIAN_POINT('',(-1.25,4.,1.53080849893419E-16));
#511=CARTESIAN_POINT('Origin',(0.,4.,0.));
#512=CARTESIAN_POINT('',(0.,3.24892422621555,0.));
#513=CARTESIAN_POINT('',(-0.625,3.62446211310778,7.65404249467096E-17));
#514=CARTESIAN_POINT('Origin',(0.,4.,0.));
#515=CARTESIAN_POINT('Origin',(0.,7.75,0.));
#516=CARTESIAN_POINT('',(-1.25,7.75,1.53080849893419E-16));
#517=CARTESIAN_POINT('',(0.,0.,0.));
#518=CARTESIAN_POINT('Origin',(0.,0.,0.));
#519=CARTESIAN_POINT('',(2.5,3.06161699786838E-16,2.8));
#520=CARTESIAN_POINT('Origin',(0.,0.,2.8));
#521=CARTESIAN_POINT('',(2.5,3.06161699786838E-16,0.));
#522=CARTESIAN_POINT('',(2.5,3.06161699786838E-16,0.));
#523=CARTESIAN_POINT('Origin',(0.,0.,0.));
#524=CARTESIAN_POINT('Origin',(-1.18032060367666E-16,0.,0.));
#525=CARTESIAN_POINT('Origin',(-1.18032060367666E-16,0.,2.8));
#526=CARTESIAN_POINT('',(0.,0.,0.));
#527=CARTESIAN_POINT('Origin',(0.,0.,0.));
#528=CARTESIAN_POINT('',(-2.5,0.,3.06161699786838E-16));
#529=CARTESIAN_POINT('Origin',(0.,0.,0.));
#530=CARTESIAN_POINT('',(-2.5,2.8,3.06161699786838E-16));
#531=CARTESIAN_POINT('',(-2.5,0.,3.06161699786838E-16));
#532=CARTESIAN_POINT('Origin',(0.,2.8,0.));
#533=CARTESIAN_POINT('Origin',(0.,0.,0.));
#534=CARTESIAN_POINT('',(-2.6,2.8,3.18408167778312E-16));
#535=CARTESIAN_POINT('Origin',(0.,2.8,0.));
#536=CARTESIAN_POINT('',(-2.6,0.,3.18408167778312E-16));
#537=CARTESIAN_POINT('',(-2.6,0.,3.18408167778312E-16));
#538=CARTESIAN_POINT('Origin',(0.,0.,0.));
#539=CARTESIAN_POINT('Origin',(1.15494192236747E-16,0.,0.));
#540=CARTESIAN_POINT('Origin',(1.15494192236747E-16,2.8,0.));
#541=CARTESIAN_POINT('',(0.,0.,0.));
#542=CARTESIAN_POINT('',(0.,2.8,0.));
#543=CARTESIAN_POINT('',(0.,0.,0.));
#544=UNCERTAINTY_MEASURE_WITH_UNIT(LENGTH_MEASURE(0.01),#554,
'DISTANCE_ACCURACY_VALUE',
'Maximum model space distance between geometric entities at asserted c
onnectivities');
#545=UNCERTAINTY_MEASURE_WITH_UNIT(LENGTH_MEASURE(0.01),#554,
'DISTANCE_ACCURACY_VALUE',
'Maximum model space distance between geometric entities at asserted c
onnectivities');
#546=UNCERTAINTY_MEASURE_WITH_UNIT(LENGTH_MEASURE(0.01),#554,
'DISTANCE_ACCURACY_VALUE',
'Maximum model space distance between geometric entities at asserted c
onnectivities');
#547=UNCERTAINTY_MEASURE_WITH_UNIT(LENGTH_MEASURE(0.01),#554,
'DISTANCE_ACCURACY_VALUE',
'Maximum model space distance between geometric entities at asserted c
onnectivities');
#548=UNCERTAINTY_MEASURE_WITH_UNIT(LENGTH_MEASURE(0.01),#554,
'DISTANCE_ACCURACY_VALUE',
'Maximum model space distance between geometric entities at asserted c
onnectivities');
#549=(
GEOMETRIC_REPRESENTATION_CONTEXT(3)
GLOBAL_UNCERTAINTY_ASSIGNED_CONTEXT((#544))
GLOBAL_UNIT_ASSIGNED_CONTEXT((#554,#556,#557))
REPRESENTATION_CONTEXT('','3D')
);
#550=(
GEOMETRIC_REPRESENTATION_CONTEXT(3)
GLOBAL_UNCERTAINTY_ASSIGNED_CONTEXT((#545))
GLOBAL_UNIT_ASSIGNED_CONTEXT((#554,#556,#557))
REPRESENTATION_CONTEXT('','3D')
);
#551=(
GEOMETRIC_REPRESENTATION_CONTEXT(3)
GLOBAL_UNCERTAINTY_ASSIGNED_CONTEXT((#546))
GLOBAL_UNIT_ASSIGNED_CONTEXT((#554,#556,#557))
REPRESENTATION_CONTEXT('','3D')
);
#552=(
GEOMETRIC_REPRESENTATION_CONTEXT(3)
GLOBAL_UNCERTAINTY_ASSIGNED_CONTEXT((#547))
GLOBAL_UNIT_ASSIGNED_CONTEXT((#554,#556,#557))
REPRESENTATION_CONTEXT('','3D')
);
#553=(
GEOMETRIC_REPRESENTATION_CONTEXT(3)
GLOBAL_UNCERTAINTY_ASSIGNED_CONTEXT((#548))
GLOBAL_UNIT_ASSIGNED_CONTEXT((#554,#556,#557))
REPRESENTATION_CONTEXT('','3D')
);
#554=(
LENGTH_UNIT()
NAMED_UNIT(*)
SI_UNIT(.MILLI.,.METRE.)
);
#555=(
LENGTH_UNIT()
NAMED_UNIT(*)
SI_UNIT(.CENTI.,.METRE.)
);
#556=(
NAMED_UNIT(*)
PLANE_ANGLE_UNIT()
SI_UNIT($,.RADIAN.)
);
#557=(
NAMED_UNIT(*)
SI_UNIT($,.STERADIAN.)
SOLID_ANGLE_UNIT()
);
#558=SHAPE_DEFINITION_REPRESENTATION(#562,#569);
#559=SHAPE_DEFINITION_REPRESENTATION(#563,#570);
#560=SHAPE_DEFINITION_REPRESENTATION(#564,#571);
#561=SHAPE_DEFINITION_REPRESENTATION(#565,#572);
#562=PRODUCT_DEFINITION_SHAPE('',$,#574);
#563=PRODUCT_DEFINITION_SHAPE('',$,#575);
#564=PRODUCT_DEFINITION_SHAPE('',$,#576);
#565=PRODUCT_DEFINITION_SHAPE('',$,#577);
#566=PRODUCT_DEFINITION_SHAPE($,$,#20);
#567=PRODUCT_DEFINITION_SHAPE($,$,#21);
#568=PRODUCT_DEFINITION_SHAPE($,$,#22);
#569=SHAPE_REPRESENTATION('',(#343,#381,#382,#383),#549);
#570=SHAPE_REPRESENTATION('',(#344),#550);
#571=SHAPE_REPRESENTATION('',(#366),#551);
#572=SHAPE_REPRESENTATION('',(#372),#552);
#573=PRODUCT_DEFINITION_CONTEXT('part definition',#587,'design');
#574=PRODUCT_DEFINITION('GM17201','GM17201',#578,#573);
#575=PRODUCT_DEFINITION('E0119274','E0119274',#579,#573);
#576=PRODUCT_DEFINITION('E0119273','E0119273',#580,#573);
#577=PRODUCT_DEFINITION('E0119272','E0119272',#581,#573);
#578=PRODUCT_DEFINITION_FORMATION('A',$,#589);
#579=PRODUCT_DEFINITION_FORMATION('-',$,#590);
#580=PRODUCT_DEFINITION_FORMATION('-',$,#591);
#581=PRODUCT_DEFINITION_FORMATION('-',$,#592);
#582=PRODUCT_RELATED_PRODUCT_CATEGORY('GM17201','GM17201',(#589));
#583=PRODUCT_RELATED_PRODUCT_CATEGORY('E0119274','E0119274',(#590));
#584=PRODUCT_RELATED_PRODUCT_CATEGORY('E0119273','E0119273',(#591));
#585=PRODUCT_RELATED_PRODUCT_CATEGORY('E0119272','E0119272',(#592));
#586=APPLICATION_PROTOCOL_DEFINITION('international standard',
'automotive_design',2009,#587);
#587=APPLICATION_CONTEXT(
'Core Data for Automotive Mechanical Design Process');
#588=PRODUCT_CONTEXT('part definition',#587,'mechanical');
#589=PRODUCT('GM17201','GM17201',$,(#588));
#590=PRODUCT('E0119274','E0119274',$,(#588));
#591=PRODUCT('E0119273','E0119273',$,(#588));
#592=PRODUCT('E0119272','E0119272',$,(#588));
ENDSEC;
END-ISO-10303-21;
