ISO-10303-21;
HEADER;
/* Generated by software containing ST-Developer
 * from STEP Tools, Inc. (www.steptools.com) 
 */

FILE_DESCRIPTION(
/* description */ (''),
/* implementation_level */ '2;1');

FILE_NAME(
/* name */ 
'C:\\Workspace\\Documents\\Manufacturing\\33\\E\\Potmagneten\\GM17403\\
GM17403 -.stp',
/* time_stamp */ '2019-09-30T13:15:32+02:00',
/* author */ ('PV'),
/* organization */ (''),
/* preprocessor_version */ 'ST-DEVELOPER v17.2',
/* originating_system */ 'Autodesk Inventor 2019',
/* authorisation */ '');

FILE_SCHEMA (('AUTOMOTIVE_DESIGN { 1 0 10303 214 3 1 1 }'));
ENDSEC;

DATA;
#10=MECHANICAL_DESIGN_GEOMETRIC_PRESENTATION_REPRESENTATION('',(#29,#30,
#31,#32,#33,#34),#452);
#11=ITEM_DEFINED_TRANSFORMATION($,$,#276,#307);
#12=ITEM_DEFINED_TRANSFORMATION($,$,#292,#308);
#13=ITEM_DEFINED_TRANSFORMATION($,$,#298,#309);
#14=(
REPRESENTATION_RELATIONSHIP($,$,#469,#468)
REPRESENTATION_RELATIONSHIP_WITH_TRANSFORMATION(#11)
SHAPE_REPRESENTATION_RELATIONSHIP()
);
#15=(
REPRESENTATION_RELATIONSHIP($,$,#470,#468)
REPRESENTATION_RELATIONSHIP_WITH_TRANSFORMATION(#12)
SHAPE_REPRESENTATION_RELATIONSHIP()
);
#16=(
REPRESENTATION_RELATIONSHIP($,$,#471,#468)
REPRESENTATION_RELATIONSHIP_WITH_TRANSFORMATION(#13)
SHAPE_REPRESENTATION_RELATIONSHIP()
);
#17=CONTEXT_DEPENDENT_SHAPE_REPRESENTATION(#14,#465);
#18=CONTEXT_DEPENDENT_SHAPE_REPRESENTATION(#15,#466);
#19=CONTEXT_DEPENDENT_SHAPE_REPRESENTATION(#16,#467);
#20=NEXT_ASSEMBLY_USAGE_OCCURRENCE('E0121229/- - OUTER HOUSING:1',
'E0121229/- - OUTER HOUSING:1','E0121229/- - OUTER HOUSING:1',#473,#474,
'E0121229/- - OUTER HOUSING:1');
#21=NEXT_ASSEMBLY_USAGE_OCCURRENCE('E0121230/- - MAGNET:1',
'E0121230/- - MAGNET:1','E0121230/- - MAGNET:1',#473,#475,
'E0121230/- - MAGNET:1');
#22=NEXT_ASSEMBLY_USAGE_OCCURRENCE('E0121228/- - GLUE:1',
'E0121228/- - GLUE:1','E0121228/- - GLUE:1',#473,#476,
'E0121228/- - GLUE:1');
#23=SHAPE_REPRESENTATION_RELATIONSHIP('SRR','None',#469,#26);
#24=SHAPE_REPRESENTATION_RELATIONSHIP('SRR','None',#470,#27);
#25=SHAPE_REPRESENTATION_RELATIONSHIP('SRR','None',#471,#28);
#26=ADVANCED_BREP_SHAPE_REPRESENTATION('',(#35),#449);
#27=ADVANCED_BREP_SHAPE_REPRESENTATION('',(#36),#450);
#28=ADVANCED_BREP_SHAPE_REPRESENTATION('',(#37),#451);
#29=STYLED_ITEM('',(#242),#35);
#30=STYLED_ITEM('',(#243),#198);
#31=STYLED_ITEM('',(#243),#199);
#32=STYLED_ITEM('',(#243),#200);
#33=STYLED_ITEM('',(#242),#36);
#34=STYLED_ITEM('',(#244),#37);
#35=MANIFOLD_SOLID_BREP('Solid2',#205);
#36=MANIFOLD_SOLID_BREP('Solid2',#206);
#37=MANIFOLD_SOLID_BREP('Solid2',#207);
#38=FACE_BOUND('',#72,.T.);
#39=FACE_BOUND('',#81,.T.);
#40=FACE_BOUND('',#83,.T.);
#41=PLANE('',#284);
#42=PLANE('',#287);
#43=PLANE('',#291);
#44=PLANE('',#296);
#45=PLANE('',#297);
#46=PLANE('',#305);
#47=PLANE('',#306);
#48=CYLINDRICAL_SURFACE('',#281,5.);
#49=CYLINDRICAL_SURFACE('',#289,4.2);
#50=CYLINDRICAL_SURFACE('',#293,4.);
#51=CYLINDRICAL_SURFACE('',#299,4.);
#52=CYLINDRICAL_SURFACE('',#302,4.2);
#53=FACE_OUTER_BOUND('',#67,.T.);
#54=FACE_OUTER_BOUND('',#68,.T.);
#55=FACE_OUTER_BOUND('',#69,.T.);
#56=FACE_OUTER_BOUND('',#70,.T.);
#57=FACE_OUTER_BOUND('',#71,.T.);
#58=FACE_OUTER_BOUND('',#73,.T.);
#59=FACE_OUTER_BOUND('',#74,.T.);
#60=FACE_OUTER_BOUND('',#75,.T.);
#61=FACE_OUTER_BOUND('',#76,.T.);
#62=FACE_OUTER_BOUND('',#77,.T.);
#63=FACE_OUTER_BOUND('',#78,.T.);
#64=FACE_OUTER_BOUND('',#79,.T.);
#65=FACE_OUTER_BOUND('',#80,.T.);
#66=FACE_OUTER_BOUND('',#82,.T.);
#67=EDGE_LOOP('',(#147,#148,#149,#150,#151));
#68=EDGE_LOOP('',(#152,#153,#154,#155,#156,#157));
#69=EDGE_LOOP('',(#158));
#70=EDGE_LOOP('',(#159,#160,#161,#162,#163));
#71=EDGE_LOOP('',(#164));
#72=EDGE_LOOP('',(#165));
#73=EDGE_LOOP('',(#166,#167,#168,#169));
#74=EDGE_LOOP('',(#170));
#75=EDGE_LOOP('',(#171,#172,#173,#174));
#76=EDGE_LOOP('',(#175));
#77=EDGE_LOOP('',(#176));
#78=EDGE_LOOP('',(#177,#178,#179,#180));
#79=EDGE_LOOP('',(#181,#182,#183,#184));
#80=EDGE_LOOP('',(#185));
#81=EDGE_LOOP('',(#186));
#82=EDGE_LOOP('',(#187));
#83=EDGE_LOOP('',(#188));
#84=LINE('',#395,#91);
#85=LINE('',#402,#92);
#86=LINE('',#407,#93);
#87=LINE('',#413,#94);
#88=LINE('',#421,#95);
#89=LINE('',#430,#96);
#90=LINE('',#436,#97);
#91=VECTOR('',#320,4.95);
#92=VECTOR('',#329,5.);
#93=VECTOR('',#336,4.95);
#94=VECTOR('',#343,4.2);
#95=VECTOR('',#354,4.);
#96=VECTOR('',#367,4.);
#97=VECTOR('',#374,4.2);
#98=CIRCLE('',#278,5.);
#99=CIRCLE('',#279,5.);
#100=CIRCLE('',#280,4.9);
#101=CIRCLE('',#282,5.);
#102=CIRCLE('',#283,5.);
#103=CIRCLE('',#286,4.9);
#104=CIRCLE('',#288,4.2);
#105=CIRCLE('',#290,4.2);
#106=CIRCLE('',#294,4.);
#107=CIRCLE('',#295,4.);
#108=CIRCLE('',#300,4.);
#109=CIRCLE('',#301,4.);
#110=CIRCLE('',#303,4.2);
#111=CIRCLE('',#304,4.2);
#112=VERTEX_POINT('',#390);
#113=VERTEX_POINT('',#391);
#114=VERTEX_POINT('',#394);
#115=VERTEX_POINT('',#398);
#116=VERTEX_POINT('',#399);
#117=VERTEX_POINT('',#405);
#118=VERTEX_POINT('',#409);
#119=VERTEX_POINT('',#412);
#120=VERTEX_POINT('',#418);
#121=VERTEX_POINT('',#420);
#122=VERTEX_POINT('',#427);
#123=VERTEX_POINT('',#429);
#124=VERTEX_POINT('',#433);
#125=VERTEX_POINT('',#435);
#126=EDGE_CURVE('',#112,#113,#98,.T.);
#127=EDGE_CURVE('',#113,#112,#99,.T.);
#128=EDGE_CURVE('',#112,#114,#84,.T.);
#129=EDGE_CURVE('',#114,#114,#100,.T.);
#130=EDGE_CURVE('',#115,#116,#101,.T.);
#131=EDGE_CURVE('',#116,#115,#102,.T.);
#132=EDGE_CURVE('',#116,#113,#85,.T.);
#133=EDGE_CURVE('',#117,#117,#103,.T.);
#134=EDGE_CURVE('',#117,#115,#86,.T.);
#135=EDGE_CURVE('',#118,#118,#104,.T.);
#136=EDGE_CURVE('',#118,#119,#87,.T.);
#137=EDGE_CURVE('',#119,#119,#105,.T.);
#138=EDGE_CURVE('',#120,#120,#106,.T.);
#139=EDGE_CURVE('',#120,#121,#88,.T.);
#140=EDGE_CURVE('',#121,#121,#107,.T.);
#141=EDGE_CURVE('',#122,#122,#108,.T.);
#142=EDGE_CURVE('',#122,#123,#89,.T.);
#143=EDGE_CURVE('',#123,#123,#109,.T.);
#144=EDGE_CURVE('',#124,#124,#110,.T.);
#145=EDGE_CURVE('',#124,#125,#90,.T.);
#146=EDGE_CURVE('',#125,#125,#111,.T.);
#147=ORIENTED_EDGE('',*,*,#126,.T.);
#148=ORIENTED_EDGE('',*,*,#127,.T.);
#149=ORIENTED_EDGE('',*,*,#128,.T.);
#150=ORIENTED_EDGE('',*,*,#129,.T.);
#151=ORIENTED_EDGE('',*,*,#128,.F.);
#152=ORIENTED_EDGE('',*,*,#130,.F.);
#153=ORIENTED_EDGE('',*,*,#131,.F.);
#154=ORIENTED_EDGE('',*,*,#132,.T.);
#155=ORIENTED_EDGE('',*,*,#126,.F.);
#156=ORIENTED_EDGE('',*,*,#127,.F.);
#157=ORIENTED_EDGE('',*,*,#132,.F.);
#158=ORIENTED_EDGE('',*,*,#129,.F.);
#159=ORIENTED_EDGE('',*,*,#133,.T.);
#160=ORIENTED_EDGE('',*,*,#134,.T.);
#161=ORIENTED_EDGE('',*,*,#130,.T.);
#162=ORIENTED_EDGE('',*,*,#131,.T.);
#163=ORIENTED_EDGE('',*,*,#134,.F.);
#164=ORIENTED_EDGE('',*,*,#133,.F.);
#165=ORIENTED_EDGE('',*,*,#135,.T.);
#166=ORIENTED_EDGE('',*,*,#135,.F.);
#167=ORIENTED_EDGE('',*,*,#136,.T.);
#168=ORIENTED_EDGE('',*,*,#137,.T.);
#169=ORIENTED_EDGE('',*,*,#136,.F.);
#170=ORIENTED_EDGE('',*,*,#137,.F.);
#171=ORIENTED_EDGE('',*,*,#138,.F.);
#172=ORIENTED_EDGE('',*,*,#139,.T.);
#173=ORIENTED_EDGE('',*,*,#140,.F.);
#174=ORIENTED_EDGE('',*,*,#139,.F.);
#175=ORIENTED_EDGE('',*,*,#140,.T.);
#176=ORIENTED_EDGE('',*,*,#138,.T.);
#177=ORIENTED_EDGE('',*,*,#141,.F.);
#178=ORIENTED_EDGE('',*,*,#142,.T.);
#179=ORIENTED_EDGE('',*,*,#143,.F.);
#180=ORIENTED_EDGE('',*,*,#142,.F.);
#181=ORIENTED_EDGE('',*,*,#144,.F.);
#182=ORIENTED_EDGE('',*,*,#145,.T.);
#183=ORIENTED_EDGE('',*,*,#146,.F.);
#184=ORIENTED_EDGE('',*,*,#145,.F.);
#185=ORIENTED_EDGE('',*,*,#146,.T.);
#186=ORIENTED_EDGE('',*,*,#141,.T.);
#187=ORIENTED_EDGE('',*,*,#144,.T.);
#188=ORIENTED_EDGE('',*,*,#143,.T.);
#189=CONICAL_SURFACE('',#277,4.95,0.785398163397448);
#190=CONICAL_SURFACE('',#285,4.95,0.785398163397443);
#191=ADVANCED_FACE('',(#53),#189,.T.);
#192=ADVANCED_FACE('',(#54),#48,.T.);
#193=ADVANCED_FACE('',(#55),#41,.T.);
#194=ADVANCED_FACE('',(#56),#190,.T.);
#195=ADVANCED_FACE('',(#57,#38),#42,.T.);
#196=ADVANCED_FACE('',(#58),#49,.F.);
#197=ADVANCED_FACE('',(#59),#43,.F.);
#198=ADVANCED_FACE('',(#60),#50,.T.);
#199=ADVANCED_FACE('',(#61),#44,.F.);
#200=ADVANCED_FACE('',(#62),#45,.T.);
#201=ADVANCED_FACE('',(#63),#51,.F.);
#202=ADVANCED_FACE('',(#64),#52,.T.);
#203=ADVANCED_FACE('',(#65,#39),#46,.F.);
#204=ADVANCED_FACE('',(#66,#40),#47,.T.);
#205=CLOSED_SHELL('',(#191,#192,#193,#194,#195,#196,#197));
#206=CLOSED_SHELL('',(#198,#199,#200));
#207=CLOSED_SHELL('',(#201,#202,#203,#204));
#208=DERIVED_UNIT_ELEMENT(#214,1.);
#209=DERIVED_UNIT_ELEMENT(#454,3.);
#210=DERIVED_UNIT_ELEMENT(#214,1.);
#211=DERIVED_UNIT_ELEMENT(#454,3.);
#212=DERIVED_UNIT_ELEMENT(#214,1.);
#213=DERIVED_UNIT_ELEMENT(#454,3.);
#214=(
MASS_UNIT()
NAMED_UNIT(*)
SI_UNIT($,.GRAM.)
);
#215=DERIVED_UNIT((#208,#209));
#216=DERIVED_UNIT((#210,#211));
#217=DERIVED_UNIT((#212,#213));
#218=MEASURE_REPRESENTATION_ITEM('density measure',
POSITIVE_RATIO_MEASURE(7.85),#215);
#219=MEASURE_REPRESENTATION_ITEM('density measure',
POSITIVE_RATIO_MEASURE(7.85),#216);
#220=MEASURE_REPRESENTATION_ITEM('density measure',
POSITIVE_RATIO_MEASURE(1.),#217);
#221=PROPERTY_DEFINITION_REPRESENTATION(#236,#227);
#222=PROPERTY_DEFINITION_REPRESENTATION(#237,#228);
#223=PROPERTY_DEFINITION_REPRESENTATION(#238,#229);
#224=PROPERTY_DEFINITION_REPRESENTATION(#239,#230);
#225=PROPERTY_DEFINITION_REPRESENTATION(#240,#231);
#226=PROPERTY_DEFINITION_REPRESENTATION(#241,#232);
#227=REPRESENTATION('material name',(#233),#449);
#228=REPRESENTATION('density',(#218),#449);
#229=REPRESENTATION('material name',(#234),#450);
#230=REPRESENTATION('density',(#219),#450);
#231=REPRESENTATION('material name',(#235),#451);
#232=REPRESENTATION('density',(#220),#451);
#233=DESCRIPTIVE_REPRESENTATION_ITEM('Steel, Carbon','Steel, Carbon');
#234=DESCRIPTIVE_REPRESENTATION_ITEM('Steel, Carbon','Steel, Carbon');
#235=DESCRIPTIVE_REPRESENTATION_ITEM('PE','PE');
#236=PROPERTY_DEFINITION('material property','material name',#474);
#237=PROPERTY_DEFINITION('material property','density of part',#474);
#238=PROPERTY_DEFINITION('material property','material name',#475);
#239=PROPERTY_DEFINITION('material property','density of part',#475);
#240=PROPERTY_DEFINITION('material property','material name',#476);
#241=PROPERTY_DEFINITION('material property','density of part',#476);
#242=PRESENTATION_STYLE_ASSIGNMENT((#245));
#243=PRESENTATION_STYLE_ASSIGNMENT((#246));
#244=PRESENTATION_STYLE_ASSIGNMENT((#247));
#245=SURFACE_STYLE_USAGE(.BOTH.,#254);
#246=SURFACE_STYLE_USAGE(.BOTH.,#255);
#247=SURFACE_STYLE_USAGE(.BOTH.,#256);
#248=SURFACE_STYLE_RENDERING_WITH_PROPERTIES($,#266,(#251));
#249=SURFACE_STYLE_RENDERING_WITH_PROPERTIES($,#267,(#252));
#250=SURFACE_STYLE_RENDERING_WITH_PROPERTIES($,#268,(#253));
#251=SURFACE_STYLE_TRANSPARENT(0.);
#252=SURFACE_STYLE_TRANSPARENT(0.);
#253=SURFACE_STYLE_TRANSPARENT(0.);
#254=SURFACE_SIDE_STYLE('',(#257,#248));
#255=SURFACE_SIDE_STYLE('',(#258,#249));
#256=SURFACE_SIDE_STYLE('',(#259,#250));
#257=SURFACE_STYLE_FILL_AREA(#260);
#258=SURFACE_STYLE_FILL_AREA(#261);
#259=SURFACE_STYLE_FILL_AREA(#262);
#260=FILL_AREA_STYLE('',(#263));
#261=FILL_AREA_STYLE('',(#264));
#262=FILL_AREA_STYLE('',(#265));
#263=FILL_AREA_STYLE_COLOUR('',#266);
#264=FILL_AREA_STYLE_COLOUR('',#267);
#265=FILL_AREA_STYLE_COLOUR('',#268);
#266=COLOUR_RGB('',0.745098039215686,0.737254901960784,0.729411764705882);
#267=COLOUR_RGB('',0.501960784313725,1.,0.501960784313725);
#268=COLOUR_RGB('',0.,0.,0.);
#269=DATE_TIME_ROLE('creation_date');
#270=APPLIED_DATE_AND_TIME_ASSIGNMENT(#271,#269,(#473));
#271=DATE_AND_TIME(#272,#273);
#272=CALENDAR_DATE(2019,22,8);
#273=LOCAL_TIME(22,0,0.,#274);
#274=COORDINATED_UNIVERSAL_TIME_OFFSET(0,0,.BEHIND.);
#275=AXIS2_PLACEMENT_3D('placement',#387,#310,#311);
#276=AXIS2_PLACEMENT_3D('placement',#388,#312,#313);
#277=AXIS2_PLACEMENT_3D('',#389,#314,#315);
#278=AXIS2_PLACEMENT_3D('',#392,#316,#317);
#279=AXIS2_PLACEMENT_3D('',#393,#318,#319);
#280=AXIS2_PLACEMENT_3D('',#396,#321,#322);
#281=AXIS2_PLACEMENT_3D('',#397,#323,#324);
#282=AXIS2_PLACEMENT_3D('',#400,#325,#326);
#283=AXIS2_PLACEMENT_3D('',#401,#327,#328);
#284=AXIS2_PLACEMENT_3D('',#403,#330,#331);
#285=AXIS2_PLACEMENT_3D('',#404,#332,#333);
#286=AXIS2_PLACEMENT_3D('',#406,#334,#335);
#287=AXIS2_PLACEMENT_3D('',#408,#337,#338);
#288=AXIS2_PLACEMENT_3D('',#410,#339,#340);
#289=AXIS2_PLACEMENT_3D('',#411,#341,#342);
#290=AXIS2_PLACEMENT_3D('',#414,#344,#345);
#291=AXIS2_PLACEMENT_3D('',#415,#346,#347);
#292=AXIS2_PLACEMENT_3D('placement',#416,#348,#349);
#293=AXIS2_PLACEMENT_3D('',#417,#350,#351);
#294=AXIS2_PLACEMENT_3D('',#419,#352,#353);
#295=AXIS2_PLACEMENT_3D('',#422,#355,#356);
#296=AXIS2_PLACEMENT_3D('',#423,#357,#358);
#297=AXIS2_PLACEMENT_3D('',#424,#359,#360);
#298=AXIS2_PLACEMENT_3D('placement',#425,#361,#362);
#299=AXIS2_PLACEMENT_3D('',#426,#363,#364);
#300=AXIS2_PLACEMENT_3D('',#428,#365,#366);
#301=AXIS2_PLACEMENT_3D('',#431,#368,#369);
#302=AXIS2_PLACEMENT_3D('',#432,#370,#371);
#303=AXIS2_PLACEMENT_3D('',#434,#372,#373);
#304=AXIS2_PLACEMENT_3D('',#437,#375,#376);
#305=AXIS2_PLACEMENT_3D('',#438,#377,#378);
#306=AXIS2_PLACEMENT_3D('',#439,#379,#380);
#307=AXIS2_PLACEMENT_3D('',#440,#381,#382);
#308=AXIS2_PLACEMENT_3D('',#441,#383,#384);
#309=AXIS2_PLACEMENT_3D('',#442,#385,#386);
#310=DIRECTION('axis',(0.,0.,1.));
#311=DIRECTION('refdir',(1.,0.,0.));
#312=DIRECTION('axis',(0.,0.,1.));
#313=DIRECTION('refdir',(1.,0.,0.));
#314=DIRECTION('center_axis',(0.,-1.,0.));
#315=DIRECTION('ref_axis',(-1.,0.,0.));
#316=DIRECTION('center_axis',(0.,1.,0.));
#317=DIRECTION('ref_axis',(-1.,0.,0.));
#318=DIRECTION('center_axis',(0.,1.,0.));
#319=DIRECTION('ref_axis',(-1.,0.,0.));
#320=DIRECTION('',(-0.707106781186548,0.707106781186548,-8.65956056235493E-17));
#321=DIRECTION('center_axis',(0.,-1.,0.));
#322=DIRECTION('ref_axis',(-1.,0.,0.));
#323=DIRECTION('center_axis',(0.,-1.,0.));
#324=DIRECTION('ref_axis',(1.,0.,0.));
#325=DIRECTION('center_axis',(0.,-1.,0.));
#326=DIRECTION('ref_axis',(-1.,0.,0.));
#327=DIRECTION('center_axis',(0.,-1.,0.));
#328=DIRECTION('ref_axis',(-1.,0.,0.));
#329=DIRECTION('',(0.,1.,0.));
#330=DIRECTION('center_axis',(0.,1.,0.));
#331=DIRECTION('ref_axis',(0.,0.,1.));
#332=DIRECTION('center_axis',(0.,1.,0.));
#333=DIRECTION('ref_axis',(-1.,0.,0.));
#334=DIRECTION('center_axis',(0.,1.,0.));
#335=DIRECTION('ref_axis',(-1.,0.,0.));
#336=DIRECTION('',(0.707106781186544,0.707106781186552,8.65956056235488E-17));
#337=DIRECTION('center_axis',(0.,-1.,0.));
#338=DIRECTION('ref_axis',(0.,0.,-1.));
#339=DIRECTION('center_axis',(0.,1.,0.));
#340=DIRECTION('ref_axis',(-1.,0.,0.));
#341=DIRECTION('center_axis',(0.,1.,0.));
#342=DIRECTION('ref_axis',(-1.,0.,0.));
#343=DIRECTION('',(0.,1.,0.));
#344=DIRECTION('center_axis',(0.,1.,0.));
#345=DIRECTION('ref_axis',(-1.,0.,0.));
#346=DIRECTION('center_axis',(0.,1.,0.));
#347=DIRECTION('ref_axis',(0.,0.,1.));
#348=DIRECTION('axis',(0.,0.,1.));
#349=DIRECTION('refdir',(1.,0.,0.));
#350=DIRECTION('center_axis',(0.,0.,1.));
#351=DIRECTION('ref_axis',(-1.,0.,0.));
#352=DIRECTION('center_axis',(0.,0.,1.));
#353=DIRECTION('ref_axis',(-1.,0.,0.));
#354=DIRECTION('',(0.,0.,-1.));
#355=DIRECTION('center_axis',(0.,0.,-1.));
#356=DIRECTION('ref_axis',(-1.,0.,0.));
#357=DIRECTION('center_axis',(0.,0.,1.));
#358=DIRECTION('ref_axis',(1.,0.,0.));
#359=DIRECTION('center_axis',(0.,0.,1.));
#360=DIRECTION('ref_axis',(1.,0.,0.));
#361=DIRECTION('axis',(0.,0.,1.));
#362=DIRECTION('refdir',(1.,0.,0.));
#363=DIRECTION('center_axis',(0.,1.,0.));
#364=DIRECTION('ref_axis',(1.,0.,0.));
#365=DIRECTION('center_axis',(0.,1.,0.));
#366=DIRECTION('ref_axis',(1.,0.,0.));
#367=DIRECTION('',(0.,1.,0.));
#368=DIRECTION('center_axis',(0.,-1.,0.));
#369=DIRECTION('ref_axis',(1.,0.,0.));
#370=DIRECTION('center_axis',(0.,1.,0.));
#371=DIRECTION('ref_axis',(1.,0.,0.));
#372=DIRECTION('center_axis',(0.,1.,0.));
#373=DIRECTION('ref_axis',(1.,0.,0.));
#374=DIRECTION('',(0.,-1.,0.));
#375=DIRECTION('center_axis',(0.,-1.,0.));
#376=DIRECTION('ref_axis',(1.,0.,0.));
#377=DIRECTION('center_axis',(0.,1.,0.));
#378=DIRECTION('ref_axis',(0.,0.,1.));
#379=DIRECTION('center_axis',(0.,1.,0.));
#380=DIRECTION('ref_axis',(0.,0.,1.));
#381=DIRECTION('',(0.,0.,1.));
#382=DIRECTION('',(1.,0.,0.));
#383=DIRECTION('',(0.,-1.,0.));
#384=DIRECTION('',(0.660749756857358,0.,0.750606260840491));
#385=DIRECTION('',(-0.180144574480588,0.,0.983640143693418));
#386=DIRECTION('',(0.983640143693418,0.,0.180144574480588));
#387=CARTESIAN_POINT('',(0.,0.,0.));
#388=CARTESIAN_POINT('',(0.,0.,0.));
#389=CARTESIAN_POINT('Origin',(0.,4.45,0.));
#390=CARTESIAN_POINT('',(5.,4.4,-6.12323399573677E-16));
#391=CARTESIAN_POINT('',(-5.,4.4,-6.12323399573677E-16));
#392=CARTESIAN_POINT('Origin',(0.,4.4,0.));
#393=CARTESIAN_POINT('Origin',(0.,4.4,0.));
#394=CARTESIAN_POINT('',(4.9,4.5,6.00076931582203E-16));
#395=CARTESIAN_POINT('',(4.95,4.45,6.0620016557794E-16));
#396=CARTESIAN_POINT('Origin',(0.,4.5,0.));
#397=CARTESIAN_POINT('Origin',(0.,2.25,0.));
#398=CARTESIAN_POINT('',(5.,0.1,6.12323399573677E-16));
#399=CARTESIAN_POINT('',(-5.,0.1,-6.12323399573677E-16));
#400=CARTESIAN_POINT('Origin',(0.,0.1,0.));
#401=CARTESIAN_POINT('Origin',(0.,0.1,0.));
#402=CARTESIAN_POINT('',(-5.,2.25,-6.12323399573677E-16));
#403=CARTESIAN_POINT('Origin',(5.,4.5,0.));
#404=CARTESIAN_POINT('Origin',(0.,0.05,0.));
#405=CARTESIAN_POINT('',(4.9,0.,-6.00076931582203E-16));
#406=CARTESIAN_POINT('Origin',(0.,0.,0.));
#407=CARTESIAN_POINT('',(4.95,0.05,6.0620016557794E-16));
#408=CARTESIAN_POINT('Origin',(0.,0.,0.));
#409=CARTESIAN_POINT('',(4.2,0.,5.14351655641888E-16));
#410=CARTESIAN_POINT('Origin',(0.,0.,0.));
#411=CARTESIAN_POINT('Origin',(0.,0.,0.));
#412=CARTESIAN_POINT('',(4.2,3.7,5.14351655641888E-16));
#413=CARTESIAN_POINT('',(4.2,0.,-5.14351655641888E-16));
#414=CARTESIAN_POINT('Origin',(0.,3.7,0.));
#415=CARTESIAN_POINT('Origin',(-2.63144984125942E-16,3.7,0.));
#416=CARTESIAN_POINT('',(0.,0.,0.));
#417=CARTESIAN_POINT('Origin',(0.,0.,0.));
#418=CARTESIAN_POINT('',(4.,4.89858719658941E-16,3.7));
#419=CARTESIAN_POINT('Origin',(0.,0.,3.7));
#420=CARTESIAN_POINT('',(4.,4.89858719658941E-16,0.));
#421=CARTESIAN_POINT('',(4.,4.89858719658941E-16,0.));
#422=CARTESIAN_POINT('Origin',(0.,0.,0.));
#423=CARTESIAN_POINT('Origin',(-4.08215599715784E-17,0.,0.));
#424=CARTESIAN_POINT('Origin',(-4.08215599715784E-17,0.,3.7));
#425=CARTESIAN_POINT('',(0.,0.,0.));
#426=CARTESIAN_POINT('Origin',(0.,0.,0.));
#427=CARTESIAN_POINT('',(-4.,0.,4.89858719658941E-16));
#428=CARTESIAN_POINT('Origin',(0.,0.,0.));
#429=CARTESIAN_POINT('',(-4.,3.7,4.89858719658941E-16));
#430=CARTESIAN_POINT('',(-4.,0.,4.89858719658941E-16));
#431=CARTESIAN_POINT('Origin',(0.,3.7,0.));
#432=CARTESIAN_POINT('Origin',(0.,0.,0.));
#433=CARTESIAN_POINT('',(-4.2,3.7,5.14351655641888E-16));
#434=CARTESIAN_POINT('Origin',(0.,3.7,0.));
#435=CARTESIAN_POINT('',(-4.2,0.,5.14351655641888E-16));
#436=CARTESIAN_POINT('',(-4.2,0.,5.14351655641888E-16));
#437=CARTESIAN_POINT('Origin',(0.,0.,0.));
#438=CARTESIAN_POINT('Origin',(2.63144984125942E-16,0.,0.));
#439=CARTESIAN_POINT('Origin',(2.63144984125942E-16,3.7,0.));
#440=CARTESIAN_POINT('',(0.,0.,0.));
#441=CARTESIAN_POINT('',(0.,3.7,0.));
#442=CARTESIAN_POINT('',(0.,0.,0.));
#443=UNCERTAINTY_MEASURE_WITH_UNIT(LENGTH_MEASURE(0.01),#453,
'DISTANCE_ACCURACY_VALUE',
'Maximum model space distance between geometric entities at asserted c
onnectivities');
#444=UNCERTAINTY_MEASURE_WITH_UNIT(LENGTH_MEASURE(0.01),#453,
'DISTANCE_ACCURACY_VALUE',
'Maximum model space distance between geometric entities at asserted c
onnectivities');
#445=UNCERTAINTY_MEASURE_WITH_UNIT(LENGTH_MEASURE(0.01),#453,
'DISTANCE_ACCURACY_VALUE',
'Maximum model space distance between geometric entities at asserted c
onnectivities');
#446=UNCERTAINTY_MEASURE_WITH_UNIT(LENGTH_MEASURE(0.01),#453,
'DISTANCE_ACCURACY_VALUE',
'Maximum model space distance between geometric entities at asserted c
onnectivities');
#447=UNCERTAINTY_MEASURE_WITH_UNIT(LENGTH_MEASURE(0.01),#453,
'DISTANCE_ACCURACY_VALUE',
'Maximum model space distance between geometric entities at asserted c
onnectivities');
#448=(
GEOMETRIC_REPRESENTATION_CONTEXT(3)
GLOBAL_UNCERTAINTY_ASSIGNED_CONTEXT((#443))
GLOBAL_UNIT_ASSIGNED_CONTEXT((#453,#455,#456))
REPRESENTATION_CONTEXT('','3D')
);
#449=(
GEOMETRIC_REPRESENTATION_CONTEXT(3)
GLOBAL_UNCERTAINTY_ASSIGNED_CONTEXT((#444))
GLOBAL_UNIT_ASSIGNED_CONTEXT((#453,#455,#456))
REPRESENTATION_CONTEXT('','3D')
);
#450=(
GEOMETRIC_REPRESENTATION_CONTEXT(3)
GLOBAL_UNCERTAINTY_ASSIGNED_CONTEXT((#445))
GLOBAL_UNIT_ASSIGNED_CONTEXT((#453,#455,#456))
REPRESENTATION_CONTEXT('','3D')
);
#451=(
GEOMETRIC_REPRESENTATION_CONTEXT(3)
GLOBAL_UNCERTAINTY_ASSIGNED_CONTEXT((#446))
GLOBAL_UNIT_ASSIGNED_CONTEXT((#453,#455,#456))
REPRESENTATION_CONTEXT('','3D')
);
#452=(
GEOMETRIC_REPRESENTATION_CONTEXT(3)
GLOBAL_UNCERTAINTY_ASSIGNED_CONTEXT((#447))
GLOBAL_UNIT_ASSIGNED_CONTEXT((#453,#455,#456))
REPRESENTATION_CONTEXT('','3D')
);
#453=(
LENGTH_UNIT()
NAMED_UNIT(*)
SI_UNIT(.MILLI.,.METRE.)
);
#454=(
LENGTH_UNIT()
NAMED_UNIT(*)
SI_UNIT(.CENTI.,.METRE.)
);
#455=(
NAMED_UNIT(*)
PLANE_ANGLE_UNIT()
SI_UNIT($,.RADIAN.)
);
#456=(
NAMED_UNIT(*)
SI_UNIT($,.STERADIAN.)
SOLID_ANGLE_UNIT()
);
#457=SHAPE_DEFINITION_REPRESENTATION(#461,#468);
#458=SHAPE_DEFINITION_REPRESENTATION(#462,#469);
#459=SHAPE_DEFINITION_REPRESENTATION(#463,#470);
#460=SHAPE_DEFINITION_REPRESENTATION(#464,#471);
#461=PRODUCT_DEFINITION_SHAPE('',$,#473);
#462=PRODUCT_DEFINITION_SHAPE('',$,#474);
#463=PRODUCT_DEFINITION_SHAPE('',$,#475);
#464=PRODUCT_DEFINITION_SHAPE('',$,#476);
#465=PRODUCT_DEFINITION_SHAPE($,$,#20);
#466=PRODUCT_DEFINITION_SHAPE($,$,#21);
#467=PRODUCT_DEFINITION_SHAPE($,$,#22);
#468=SHAPE_REPRESENTATION('',(#275,#307,#308,#309),#448);
#469=SHAPE_REPRESENTATION('',(#276),#449);
#470=SHAPE_REPRESENTATION('',(#292),#450);
#471=SHAPE_REPRESENTATION('',(#298),#451);
#472=PRODUCT_DEFINITION_CONTEXT('part definition',#486,'design');
#473=PRODUCT_DEFINITION('GM17403','GM17403',#477,#472);
#474=PRODUCT_DEFINITION('E0121229','E0121229',#478,#472);
#475=PRODUCT_DEFINITION('E0121230','E0121230',#479,#472);
#476=PRODUCT_DEFINITION('E0121228','E0121228',#480,#472);
#477=PRODUCT_DEFINITION_FORMATION('-',$,#488);
#478=PRODUCT_DEFINITION_FORMATION('-',$,#489);
#479=PRODUCT_DEFINITION_FORMATION('-',$,#490);
#480=PRODUCT_DEFINITION_FORMATION('-',$,#491);
#481=PRODUCT_RELATED_PRODUCT_CATEGORY('GM17403','GM17403',(#488));
#482=PRODUCT_RELATED_PRODUCT_CATEGORY('E0121229','E0121229',(#489));
#483=PRODUCT_RELATED_PRODUCT_CATEGORY('E0121230','E0121230',(#490));
#484=PRODUCT_RELATED_PRODUCT_CATEGORY('E0121228','E0121228',(#491));
#485=APPLICATION_PROTOCOL_DEFINITION('international standard',
'automotive_design',2009,#486);
#486=APPLICATION_CONTEXT(
'Core Data for Automotive Mechanical Design Process');
#487=PRODUCT_CONTEXT('part definition',#486,'mechanical');
#488=PRODUCT('GM17403','GM17403',$,(#487));
#489=PRODUCT('E0121229','E0121229',$,(#487));
#490=PRODUCT('E0121230','E0121230',$,(#487));
#491=PRODUCT('E0121228','E0121228',$,(#487));
ENDSEC;
END-ISO-10303-21;
