ISO-10303-21;
HEADER;
/* Generated by software containing ST-Developer
 * from STEP Tools, Inc. (www.steptools.com) 
 */

FILE_DESCRIPTION(
/* description */ (''),
/* implementation_level */ '2;1');

FILE_NAME(
/* name */ 
'C:\\Workspace\\Documents\\Manufacturing\\33\\E\\Potmagneten\\GM17406\\
GM17406 -.stp',
/* time_stamp */ '2019-09-30T13:33:06+02:00',
/* author */ ('PV'),
/* organization */ (''),
/* preprocessor_version */ 'ST-DEVELOPER v17.2',
/* originating_system */ 'Autodesk Inventor 2019',
/* authorisation */ '');

FILE_SCHEMA (('AUTOMOTIVE_DESIGN { 1 0 10303 214 3 1 1 }'));
ENDSEC;

DATA;
#10=MECHANICAL_DESIGN_GEOMETRIC_PRESENTATION_REPRESENTATION('',(#29,#30,
#31,#32,#33,#34),#464);
#11=ITEM_DEFINED_TRANSFORMATION($,$,#288,#319);
#12=ITEM_DEFINED_TRANSFORMATION($,$,#304,#320);
#13=ITEM_DEFINED_TRANSFORMATION($,$,#310,#321);
#14=(
REPRESENTATION_RELATIONSHIP($,$,#481,#480)
REPRESENTATION_RELATIONSHIP_WITH_TRANSFORMATION(#11)
SHAPE_REPRESENTATION_RELATIONSHIP()
);
#15=(
REPRESENTATION_RELATIONSHIP($,$,#482,#480)
REPRESENTATION_RELATIONSHIP_WITH_TRANSFORMATION(#12)
SHAPE_REPRESENTATION_RELATIONSHIP()
);
#16=(
REPRESENTATION_RELATIONSHIP($,$,#483,#480)
REPRESENTATION_RELATIONSHIP_WITH_TRANSFORMATION(#13)
SHAPE_REPRESENTATION_RELATIONSHIP()
);
#17=CONTEXT_DEPENDENT_SHAPE_REPRESENTATION(#14,#477);
#18=CONTEXT_DEPENDENT_SHAPE_REPRESENTATION(#15,#478);
#19=CONTEXT_DEPENDENT_SHAPE_REPRESENTATION(#16,#479);
#20=NEXT_ASSEMBLY_USAGE_OCCURRENCE('E0121248/- - OUTER HOUSING:1',
'E0121248/- - OUTER HOUSING:1','E0121248/- - OUTER HOUSING:1',#485,#486,
'E0121248/- - OUTER HOUSING:1');
#21=NEXT_ASSEMBLY_USAGE_OCCURRENCE('E0121250/- - MAGNET:1',
'E0121250/- - MAGNET:1','E0121250/- - MAGNET:1',#485,#487,
'E0121250/- - MAGNET:1');
#22=NEXT_ASSEMBLY_USAGE_OCCURRENCE('E0121249/- - GLUE:1',
'E0121249/- - GLUE:1','E0121249/- - GLUE:1',#485,#488,
'E0121249/- - GLUE:1');
#23=SHAPE_REPRESENTATION_RELATIONSHIP('SRR','None',#481,#26);
#24=SHAPE_REPRESENTATION_RELATIONSHIP('SRR','None',#482,#27);
#25=SHAPE_REPRESENTATION_RELATIONSHIP('SRR','None',#483,#28);
#26=ADVANCED_BREP_SHAPE_REPRESENTATION('',(#35),#461);
#27=ADVANCED_BREP_SHAPE_REPRESENTATION('',(#36),#462);
#28=ADVANCED_BREP_SHAPE_REPRESENTATION('',(#37),#463);
#29=STYLED_ITEM('',(#242),#35);
#30=STYLED_ITEM('',(#243),#198);
#31=STYLED_ITEM('',(#243),#199);
#32=STYLED_ITEM('',(#243),#200);
#33=STYLED_ITEM('',(#242),#36);
#34=STYLED_ITEM('',(#244),#37);
#35=MANIFOLD_SOLID_BREP('Solid2',#205);
#36=MANIFOLD_SOLID_BREP('Solid2',#206);
#37=MANIFOLD_SOLID_BREP('Solid2',#207);
#38=FACE_BOUND('',#72,.T.);
#39=FACE_BOUND('',#81,.T.);
#40=FACE_BOUND('',#83,.T.);
#41=PLANE('',#296);
#42=PLANE('',#299);
#43=PLANE('',#303);
#44=PLANE('',#308);
#45=PLANE('',#309);
#46=PLANE('',#317);
#47=PLANE('',#318);
#48=CYLINDRICAL_SURFACE('',#293,10.);
#49=CYLINDRICAL_SURFACE('',#301,8.);
#50=CYLINDRICAL_SURFACE('',#305,7.8);
#51=CYLINDRICAL_SURFACE('',#311,7.8);
#52=CYLINDRICAL_SURFACE('',#314,8.);
#53=FACE_OUTER_BOUND('',#67,.T.);
#54=FACE_OUTER_BOUND('',#68,.T.);
#55=FACE_OUTER_BOUND('',#69,.T.);
#56=FACE_OUTER_BOUND('',#70,.T.);
#57=FACE_OUTER_BOUND('',#71,.T.);
#58=FACE_OUTER_BOUND('',#73,.T.);
#59=FACE_OUTER_BOUND('',#74,.T.);
#60=FACE_OUTER_BOUND('',#75,.T.);
#61=FACE_OUTER_BOUND('',#76,.T.);
#62=FACE_OUTER_BOUND('',#77,.T.);
#63=FACE_OUTER_BOUND('',#78,.T.);
#64=FACE_OUTER_BOUND('',#79,.T.);
#65=FACE_OUTER_BOUND('',#80,.T.);
#66=FACE_OUTER_BOUND('',#82,.T.);
#67=EDGE_LOOP('',(#147,#148,#149,#150,#151));
#68=EDGE_LOOP('',(#152,#153,#154,#155,#156,#157));
#69=EDGE_LOOP('',(#158));
#70=EDGE_LOOP('',(#159,#160,#161,#162,#163));
#71=EDGE_LOOP('',(#164));
#72=EDGE_LOOP('',(#165));
#73=EDGE_LOOP('',(#166,#167,#168,#169));
#74=EDGE_LOOP('',(#170));
#75=EDGE_LOOP('',(#171,#172,#173,#174));
#76=EDGE_LOOP('',(#175));
#77=EDGE_LOOP('',(#176));
#78=EDGE_LOOP('',(#177,#178,#179,#180));
#79=EDGE_LOOP('',(#181,#182,#183,#184));
#80=EDGE_LOOP('',(#185));
#81=EDGE_LOOP('',(#186));
#82=EDGE_LOOP('',(#187));
#83=EDGE_LOOP('',(#188));
#84=LINE('',#407,#91);
#85=LINE('',#414,#92);
#86=LINE('',#419,#93);
#87=LINE('',#425,#94);
#88=LINE('',#433,#95);
#89=LINE('',#442,#96);
#90=LINE('',#448,#97);
#91=VECTOR('',#332,9.85);
#92=VECTOR('',#341,10.);
#93=VECTOR('',#348,9.95);
#94=VECTOR('',#355,8.);
#95=VECTOR('',#366,7.8);
#96=VECTOR('',#379,7.8);
#97=VECTOR('',#386,8.);
#98=CIRCLE('',#290,10.);
#99=CIRCLE('',#291,10.);
#100=CIRCLE('',#292,9.7);
#101=CIRCLE('',#294,10.);
#102=CIRCLE('',#295,10.);
#103=CIRCLE('',#298,9.9);
#104=CIRCLE('',#300,8.);
#105=CIRCLE('',#302,8.);
#106=CIRCLE('',#306,7.8);
#107=CIRCLE('',#307,7.8);
#108=CIRCLE('',#312,7.8);
#109=CIRCLE('',#313,7.8);
#110=CIRCLE('',#315,8.);
#111=CIRCLE('',#316,8.);
#112=VERTEX_POINT('',#402);
#113=VERTEX_POINT('',#403);
#114=VERTEX_POINT('',#406);
#115=VERTEX_POINT('',#410);
#116=VERTEX_POINT('',#411);
#117=VERTEX_POINT('',#417);
#118=VERTEX_POINT('',#421);
#119=VERTEX_POINT('',#424);
#120=VERTEX_POINT('',#430);
#121=VERTEX_POINT('',#432);
#122=VERTEX_POINT('',#439);
#123=VERTEX_POINT('',#441);
#124=VERTEX_POINT('',#445);
#125=VERTEX_POINT('',#447);
#126=EDGE_CURVE('',#112,#113,#98,.T.);
#127=EDGE_CURVE('',#113,#112,#99,.T.);
#128=EDGE_CURVE('',#112,#114,#84,.T.);
#129=EDGE_CURVE('',#114,#114,#100,.T.);
#130=EDGE_CURVE('',#115,#116,#101,.T.);
#131=EDGE_CURVE('',#116,#115,#102,.T.);
#132=EDGE_CURVE('',#116,#113,#85,.T.);
#133=EDGE_CURVE('',#117,#117,#103,.T.);
#134=EDGE_CURVE('',#117,#115,#86,.T.);
#135=EDGE_CURVE('',#118,#118,#104,.T.);
#136=EDGE_CURVE('',#118,#119,#87,.T.);
#137=EDGE_CURVE('',#119,#119,#105,.T.);
#138=EDGE_CURVE('',#120,#120,#106,.T.);
#139=EDGE_CURVE('',#120,#121,#88,.T.);
#140=EDGE_CURVE('',#121,#121,#107,.T.);
#141=EDGE_CURVE('',#122,#122,#108,.T.);
#142=EDGE_CURVE('',#122,#123,#89,.T.);
#143=EDGE_CURVE('',#123,#123,#109,.T.);
#144=EDGE_CURVE('',#124,#124,#110,.T.);
#145=EDGE_CURVE('',#124,#125,#90,.T.);
#146=EDGE_CURVE('',#125,#125,#111,.T.);
#147=ORIENTED_EDGE('',*,*,#126,.T.);
#148=ORIENTED_EDGE('',*,*,#127,.T.);
#149=ORIENTED_EDGE('',*,*,#128,.T.);
#150=ORIENTED_EDGE('',*,*,#129,.T.);
#151=ORIENTED_EDGE('',*,*,#128,.F.);
#152=ORIENTED_EDGE('',*,*,#130,.F.);
#153=ORIENTED_EDGE('',*,*,#131,.F.);
#154=ORIENTED_EDGE('',*,*,#132,.T.);
#155=ORIENTED_EDGE('',*,*,#126,.F.);
#156=ORIENTED_EDGE('',*,*,#127,.F.);
#157=ORIENTED_EDGE('',*,*,#132,.F.);
#158=ORIENTED_EDGE('',*,*,#129,.F.);
#159=ORIENTED_EDGE('',*,*,#133,.T.);
#160=ORIENTED_EDGE('',*,*,#134,.T.);
#161=ORIENTED_EDGE('',*,*,#130,.T.);
#162=ORIENTED_EDGE('',*,*,#131,.T.);
#163=ORIENTED_EDGE('',*,*,#134,.F.);
#164=ORIENTED_EDGE('',*,*,#133,.F.);
#165=ORIENTED_EDGE('',*,*,#135,.T.);
#166=ORIENTED_EDGE('',*,*,#135,.F.);
#167=ORIENTED_EDGE('',*,*,#136,.T.);
#168=ORIENTED_EDGE('',*,*,#137,.T.);
#169=ORIENTED_EDGE('',*,*,#136,.F.);
#170=ORIENTED_EDGE('',*,*,#137,.F.);
#171=ORIENTED_EDGE('',*,*,#138,.F.);
#172=ORIENTED_EDGE('',*,*,#139,.T.);
#173=ORIENTED_EDGE('',*,*,#140,.F.);
#174=ORIENTED_EDGE('',*,*,#139,.F.);
#175=ORIENTED_EDGE('',*,*,#140,.T.);
#176=ORIENTED_EDGE('',*,*,#138,.T.);
#177=ORIENTED_EDGE('',*,*,#141,.F.);
#178=ORIENTED_EDGE('',*,*,#142,.T.);
#179=ORIENTED_EDGE('',*,*,#143,.F.);
#180=ORIENTED_EDGE('',*,*,#142,.F.);
#181=ORIENTED_EDGE('',*,*,#144,.F.);
#182=ORIENTED_EDGE('',*,*,#145,.T.);
#183=ORIENTED_EDGE('',*,*,#146,.F.);
#184=ORIENTED_EDGE('',*,*,#145,.F.);
#185=ORIENTED_EDGE('',*,*,#146,.T.);
#186=ORIENTED_EDGE('',*,*,#141,.T.);
#187=ORIENTED_EDGE('',*,*,#144,.T.);
#188=ORIENTED_EDGE('',*,*,#143,.T.);
#189=CONICAL_SURFACE('',#289,9.85,0.785398163397448);
#190=CONICAL_SURFACE('',#297,9.95,0.785398163397448);
#191=ADVANCED_FACE('',(#53),#189,.T.);
#192=ADVANCED_FACE('',(#54),#48,.T.);
#193=ADVANCED_FACE('',(#55),#41,.T.);
#194=ADVANCED_FACE('',(#56),#190,.T.);
#195=ADVANCED_FACE('',(#57,#38),#42,.T.);
#196=ADVANCED_FACE('',(#58),#49,.F.);
#197=ADVANCED_FACE('',(#59),#43,.F.);
#198=ADVANCED_FACE('',(#60),#50,.T.);
#199=ADVANCED_FACE('',(#61),#44,.F.);
#200=ADVANCED_FACE('',(#62),#45,.T.);
#201=ADVANCED_FACE('',(#63),#51,.F.);
#202=ADVANCED_FACE('',(#64),#52,.T.);
#203=ADVANCED_FACE('',(#65,#39),#46,.F.);
#204=ADVANCED_FACE('',(#66,#40),#47,.T.);
#205=CLOSED_SHELL('',(#191,#192,#193,#194,#195,#196,#197));
#206=CLOSED_SHELL('',(#198,#199,#200));
#207=CLOSED_SHELL('',(#201,#202,#203,#204));
#208=DERIVED_UNIT_ELEMENT(#214,1.);
#209=DERIVED_UNIT_ELEMENT(#466,3.);
#210=DERIVED_UNIT_ELEMENT(#214,1.);
#211=DERIVED_UNIT_ELEMENT(#466,3.);
#212=DERIVED_UNIT_ELEMENT(#214,1.);
#213=DERIVED_UNIT_ELEMENT(#466,3.);
#214=(
MASS_UNIT()
NAMED_UNIT(*)
SI_UNIT($,.GRAM.)
);
#215=DERIVED_UNIT((#208,#209));
#216=DERIVED_UNIT((#210,#211));
#217=DERIVED_UNIT((#212,#213));
#218=MEASURE_REPRESENTATION_ITEM('density measure',
POSITIVE_RATIO_MEASURE(7.85),#215);
#219=MEASURE_REPRESENTATION_ITEM('density measure',
POSITIVE_RATIO_MEASURE(7.85),#216);
#220=MEASURE_REPRESENTATION_ITEM('density measure',
POSITIVE_RATIO_MEASURE(1.),#217);
#221=PROPERTY_DEFINITION_REPRESENTATION(#236,#227);
#222=PROPERTY_DEFINITION_REPRESENTATION(#237,#228);
#223=PROPERTY_DEFINITION_REPRESENTATION(#238,#229);
#224=PROPERTY_DEFINITION_REPRESENTATION(#239,#230);
#225=PROPERTY_DEFINITION_REPRESENTATION(#240,#231);
#226=PROPERTY_DEFINITION_REPRESENTATION(#241,#232);
#227=REPRESENTATION('material name',(#233),#461);
#228=REPRESENTATION('density',(#218),#461);
#229=REPRESENTATION('material name',(#234),#462);
#230=REPRESENTATION('density',(#219),#462);
#231=REPRESENTATION('material name',(#235),#463);
#232=REPRESENTATION('density',(#220),#463);
#233=DESCRIPTIVE_REPRESENTATION_ITEM('Steel, Carbon','Steel, Carbon');
#234=DESCRIPTIVE_REPRESENTATION_ITEM('Steel, Carbon','Steel, Carbon');
#235=DESCRIPTIVE_REPRESENTATION_ITEM('PE','PE');
#236=PROPERTY_DEFINITION('material property','material name',#486);
#237=PROPERTY_DEFINITION('material property','density of part',#486);
#238=PROPERTY_DEFINITION('material property','material name',#487);
#239=PROPERTY_DEFINITION('material property','density of part',#487);
#240=PROPERTY_DEFINITION('material property','material name',#488);
#241=PROPERTY_DEFINITION('material property','density of part',#488);
#242=PRESENTATION_STYLE_ASSIGNMENT((#245));
#243=PRESENTATION_STYLE_ASSIGNMENT((#246));
#244=PRESENTATION_STYLE_ASSIGNMENT((#247));
#245=SURFACE_STYLE_USAGE(.BOTH.,#254);
#246=SURFACE_STYLE_USAGE(.BOTH.,#255);
#247=SURFACE_STYLE_USAGE(.BOTH.,#256);
#248=SURFACE_STYLE_RENDERING_WITH_PROPERTIES($,#266,(#251));
#249=SURFACE_STYLE_RENDERING_WITH_PROPERTIES($,#267,(#252));
#250=SURFACE_STYLE_RENDERING_WITH_PROPERTIES($,#268,(#253));
#251=SURFACE_STYLE_TRANSPARENT(0.);
#252=SURFACE_STYLE_TRANSPARENT(0.);
#253=SURFACE_STYLE_TRANSPARENT(0.);
#254=SURFACE_SIDE_STYLE('',(#257,#248));
#255=SURFACE_SIDE_STYLE('',(#258,#249));
#256=SURFACE_SIDE_STYLE('',(#259,#250));
#257=SURFACE_STYLE_FILL_AREA(#260);
#258=SURFACE_STYLE_FILL_AREA(#261);
#259=SURFACE_STYLE_FILL_AREA(#262);
#260=FILL_AREA_STYLE('',(#263));
#261=FILL_AREA_STYLE('',(#264));
#262=FILL_AREA_STYLE('',(#265));
#263=FILL_AREA_STYLE_COLOUR('',#266);
#264=FILL_AREA_STYLE_COLOUR('',#267);
#265=FILL_AREA_STYLE_COLOUR('',#268);
#266=COLOUR_RGB('',0.745098039215686,0.737254901960784,0.729411764705882);
#267=COLOUR_RGB('',0.501960784313725,1.,0.501960784313725);
#268=COLOUR_RGB('',0.,0.,0.);
#269=DATE_TIME_ROLE('creation_date');
#270=DATE_TIME_ROLE('creation_date');
#271=DATE_TIME_ROLE('creation_date');
#272=APPLIED_DATE_AND_TIME_ASSIGNMENT(#275,#269,(#485));
#273=APPLIED_DATE_AND_TIME_ASSIGNMENT(#276,#270,(#487));
#274=APPLIED_DATE_AND_TIME_ASSIGNMENT(#277,#271,(#488));
#275=DATE_AND_TIME(#278,#281);
#276=DATE_AND_TIME(#279,#282);
#277=DATE_AND_TIME(#280,#283);
#278=CALENDAR_DATE(2019,22,8);
#279=CALENDAR_DATE(2019,22,8);
#280=CALENDAR_DATE(2019,22,8);
#281=LOCAL_TIME(22,0,0.,#284);
#282=LOCAL_TIME(22,0,0.,#285);
#283=LOCAL_TIME(22,0,0.,#286);
#284=COORDINATED_UNIVERSAL_TIME_OFFSET(0,0,.BEHIND.);
#285=COORDINATED_UNIVERSAL_TIME_OFFSET(0,0,.BEHIND.);
#286=COORDINATED_UNIVERSAL_TIME_OFFSET(0,0,.BEHIND.);
#287=AXIS2_PLACEMENT_3D('placement',#399,#322,#323);
#288=AXIS2_PLACEMENT_3D('placement',#400,#324,#325);
#289=AXIS2_PLACEMENT_3D('',#401,#326,#327);
#290=AXIS2_PLACEMENT_3D('',#404,#328,#329);
#291=AXIS2_PLACEMENT_3D('',#405,#330,#331);
#292=AXIS2_PLACEMENT_3D('',#408,#333,#334);
#293=AXIS2_PLACEMENT_3D('',#409,#335,#336);
#294=AXIS2_PLACEMENT_3D('',#412,#337,#338);
#295=AXIS2_PLACEMENT_3D('',#413,#339,#340);
#296=AXIS2_PLACEMENT_3D('',#415,#342,#343);
#297=AXIS2_PLACEMENT_3D('',#416,#344,#345);
#298=AXIS2_PLACEMENT_3D('',#418,#346,#347);
#299=AXIS2_PLACEMENT_3D('',#420,#349,#350);
#300=AXIS2_PLACEMENT_3D('',#422,#351,#352);
#301=AXIS2_PLACEMENT_3D('',#423,#353,#354);
#302=AXIS2_PLACEMENT_3D('',#426,#356,#357);
#303=AXIS2_PLACEMENT_3D('',#427,#358,#359);
#304=AXIS2_PLACEMENT_3D('placement',#428,#360,#361);
#305=AXIS2_PLACEMENT_3D('',#429,#362,#363);
#306=AXIS2_PLACEMENT_3D('',#431,#364,#365);
#307=AXIS2_PLACEMENT_3D('',#434,#367,#368);
#308=AXIS2_PLACEMENT_3D('',#435,#369,#370);
#309=AXIS2_PLACEMENT_3D('',#436,#371,#372);
#310=AXIS2_PLACEMENT_3D('placement',#437,#373,#374);
#311=AXIS2_PLACEMENT_3D('',#438,#375,#376);
#312=AXIS2_PLACEMENT_3D('',#440,#377,#378);
#313=AXIS2_PLACEMENT_3D('',#443,#380,#381);
#314=AXIS2_PLACEMENT_3D('',#444,#382,#383);
#315=AXIS2_PLACEMENT_3D('',#446,#384,#385);
#316=AXIS2_PLACEMENT_3D('',#449,#387,#388);
#317=AXIS2_PLACEMENT_3D('',#450,#389,#390);
#318=AXIS2_PLACEMENT_3D('',#451,#391,#392);
#319=AXIS2_PLACEMENT_3D('',#452,#393,#394);
#320=AXIS2_PLACEMENT_3D('',#453,#395,#396);
#321=AXIS2_PLACEMENT_3D('',#454,#397,#398);
#322=DIRECTION('axis',(0.,0.,1.));
#323=DIRECTION('refdir',(1.,0.,0.));
#324=DIRECTION('axis',(0.,0.,1.));
#325=DIRECTION('refdir',(1.,0.,0.));
#326=DIRECTION('center_axis',(0.,-1.,0.));
#327=DIRECTION('ref_axis',(-1.,0.,0.));
#328=DIRECTION('center_axis',(0.,1.,0.));
#329=DIRECTION('ref_axis',(-1.,0.,0.));
#330=DIRECTION('center_axis',(0.,1.,0.));
#331=DIRECTION('ref_axis',(-1.,0.,0.));
#332=DIRECTION('',(-0.707106781186548,0.707106781186548,-8.65956056235493E-17));
#333=DIRECTION('center_axis',(0.,-1.,0.));
#334=DIRECTION('ref_axis',(-1.,0.,0.));
#335=DIRECTION('center_axis',(0.,-1.,0.));
#336=DIRECTION('ref_axis',(1.,0.,0.));
#337=DIRECTION('center_axis',(0.,-1.,0.));
#338=DIRECTION('ref_axis',(-1.,0.,0.));
#339=DIRECTION('center_axis',(0.,-1.,0.));
#340=DIRECTION('ref_axis',(-1.,0.,0.));
#341=DIRECTION('',(0.,1.,0.));
#342=DIRECTION('center_axis',(0.,1.,0.));
#343=DIRECTION('ref_axis',(0.,0.,1.));
#344=DIRECTION('center_axis',(0.,1.,0.));
#345=DIRECTION('ref_axis',(-1.,0.,0.));
#346=DIRECTION('center_axis',(0.,1.,0.));
#347=DIRECTION('ref_axis',(-1.,0.,0.));
#348=DIRECTION('',(0.707106781186547,0.707106781186547,8.65956056235493E-17));
#349=DIRECTION('center_axis',(0.,-1.,0.));
#350=DIRECTION('ref_axis',(0.,0.,-1.));
#351=DIRECTION('center_axis',(0.,1.,0.));
#352=DIRECTION('ref_axis',(-1.,0.,0.));
#353=DIRECTION('center_axis',(0.,1.,0.));
#354=DIRECTION('ref_axis',(-1.,0.,0.));
#355=DIRECTION('',(0.,1.,0.));
#356=DIRECTION('center_axis',(0.,1.,0.));
#357=DIRECTION('ref_axis',(-1.,0.,0.));
#358=DIRECTION('center_axis',(0.,1.,0.));
#359=DIRECTION('ref_axis',(0.,0.,1.));
#360=DIRECTION('axis',(0.,0.,1.));
#361=DIRECTION('refdir',(1.,0.,0.));
#362=DIRECTION('center_axis',(0.,0.,1.));
#363=DIRECTION('ref_axis',(-1.,0.,0.));
#364=DIRECTION('center_axis',(0.,0.,1.));
#365=DIRECTION('ref_axis',(-1.,0.,0.));
#366=DIRECTION('',(0.,0.,-1.));
#367=DIRECTION('center_axis',(0.,0.,-1.));
#368=DIRECTION('ref_axis',(-1.,0.,0.));
#369=DIRECTION('center_axis',(0.,0.,1.));
#370=DIRECTION('ref_axis',(1.,0.,0.));
#371=DIRECTION('center_axis',(0.,0.,1.));
#372=DIRECTION('ref_axis',(1.,0.,0.));
#373=DIRECTION('axis',(0.,0.,1.));
#374=DIRECTION('refdir',(1.,0.,0.));
#375=DIRECTION('center_axis',(0.,1.,0.));
#376=DIRECTION('ref_axis',(1.,0.,0.));
#377=DIRECTION('center_axis',(0.,1.,0.));
#378=DIRECTION('ref_axis',(1.,0.,0.));
#379=DIRECTION('',(0.,1.,0.));
#380=DIRECTION('center_axis',(0.,-1.,0.));
#381=DIRECTION('ref_axis',(1.,0.,0.));
#382=DIRECTION('center_axis',(0.,1.,0.));
#383=DIRECTION('ref_axis',(1.,0.,0.));
#384=DIRECTION('center_axis',(0.,1.,0.));
#385=DIRECTION('ref_axis',(1.,0.,0.));
#386=DIRECTION('',(0.,-1.,0.));
#387=DIRECTION('center_axis',(0.,-1.,0.));
#388=DIRECTION('ref_axis',(1.,0.,0.));
#389=DIRECTION('center_axis',(0.,1.,0.));
#390=DIRECTION('ref_axis',(0.,0.,1.));
#391=DIRECTION('center_axis',(0.,1.,0.));
#392=DIRECTION('ref_axis',(0.,0.,1.));
#393=DIRECTION('',(0.,0.,1.));
#394=DIRECTION('',(1.,0.,0.));
#395=DIRECTION('',(0.,-1.,0.));
#396=DIRECTION('',(0.551047771617804,0.,0.834473698444147));
#397=DIRECTION('',(-0.180144574480588,0.,0.983640143693418));
#398=DIRECTION('',(0.983640143693418,0.,0.180144574480588));
#399=CARTESIAN_POINT('',(0.,0.,0.));
#400=CARTESIAN_POINT('',(0.,0.,0.));
#401=CARTESIAN_POINT('Origin',(0.,5.85,0.));
#402=CARTESIAN_POINT('',(10.,5.7,-1.22464679914735E-15));
#403=CARTESIAN_POINT('',(-10.,5.7,-1.22464679914735E-15));
#404=CARTESIAN_POINT('Origin',(0.,5.7,0.));
#405=CARTESIAN_POINT('Origin',(0.,5.7,0.));
#406=CARTESIAN_POINT('',(9.7,6.,1.18790739517293E-15));
#407=CARTESIAN_POINT('',(9.85,5.85,1.20627709716014E-15));
#408=CARTESIAN_POINT('Origin',(0.,6.,0.));
#409=CARTESIAN_POINT('Origin',(0.,3.,0.));
#410=CARTESIAN_POINT('',(10.,0.1,1.22464679914735E-15));
#411=CARTESIAN_POINT('',(-10.,0.1,-1.22464679914735E-15));
#412=CARTESIAN_POINT('Origin',(0.,0.1,0.));
#413=CARTESIAN_POINT('Origin',(0.,0.1,0.));
#414=CARTESIAN_POINT('',(-10.,3.,-1.22464679914735E-15));
#415=CARTESIAN_POINT('Origin',(10.,6.,0.));
#416=CARTESIAN_POINT('Origin',(0.,0.05,0.));
#417=CARTESIAN_POINT('',(9.9,0.,-1.21240033115588E-15));
#418=CARTESIAN_POINT('Origin',(0.,0.,0.));
#419=CARTESIAN_POINT('',(9.95,0.05,1.21852356515162E-15));
#420=CARTESIAN_POINT('Origin',(0.,0.,0.));
#421=CARTESIAN_POINT('',(8.,0.,9.79717439317883E-16));
#422=CARTESIAN_POINT('Origin',(0.,0.,0.));
#423=CARTESIAN_POINT('Origin',(0.,0.,0.));
#424=CARTESIAN_POINT('',(8.,4.8,9.79717439317883E-16));
#425=CARTESIAN_POINT('',(8.,0.,-9.79717439317883E-16));
#426=CARTESIAN_POINT('Origin',(0.,4.8,0.));
#427=CARTESIAN_POINT('Origin',(-7.7553251033388E-16,4.8,-1.15648231731787E-16));
#428=CARTESIAN_POINT('',(0.,0.,0.));
#429=CARTESIAN_POINT('Origin',(0.,0.,0.));
#430=CARTESIAN_POINT('',(7.8,9.55224503334936E-16,4.8));
#431=CARTESIAN_POINT('Origin',(0.,0.,4.8));
#432=CARTESIAN_POINT('',(7.8,9.55224503334936E-16,0.));
#433=CARTESIAN_POINT('',(7.8,9.55224503334936E-16,0.));
#434=CARTESIAN_POINT('Origin',(0.,0.,0.));
#435=CARTESIAN_POINT('Origin',(-3.168291839585E-16,0.,0.));
#436=CARTESIAN_POINT('Origin',(-3.168291839585E-16,0.,4.8));
#437=CARTESIAN_POINT('',(0.,0.,0.));
#438=CARTESIAN_POINT('Origin',(0.,0.,0.));
#439=CARTESIAN_POINT('',(-7.8,0.,9.55224503334935E-16));
#440=CARTESIAN_POINT('Origin',(0.,0.,0.));
#441=CARTESIAN_POINT('',(-7.8,4.8,9.55224503334935E-16));
#442=CARTESIAN_POINT('',(-7.8,0.,9.55224503334935E-16));
#443=CARTESIAN_POINT('Origin',(0.,4.8,0.));
#444=CARTESIAN_POINT('Origin',(0.,0.,0.));
#445=CARTESIAN_POINT('',(-8.,4.8,9.79717439317883E-16));
#446=CARTESIAN_POINT('Origin',(0.,4.8,0.));
#447=CARTESIAN_POINT('',(-8.,0.,9.79717439317883E-16));
#448=CARTESIAN_POINT('',(-8.,0.,9.79717439317883E-16));
#449=CARTESIAN_POINT('Origin',(0.,0.,0.));
#450=CARTESIAN_POINT('Origin',(7.7553251033388E-16,0.,-1.15648231731787E-16));
#451=CARTESIAN_POINT('Origin',(7.7553251033388E-16,4.8,-1.15648231731787E-16));
#452=CARTESIAN_POINT('',(0.,0.,0.));
#453=CARTESIAN_POINT('',(0.,4.8,0.));
#454=CARTESIAN_POINT('',(0.,0.,0.));
#455=UNCERTAINTY_MEASURE_WITH_UNIT(LENGTH_MEASURE(0.01),#465,
'DISTANCE_ACCURACY_VALUE',
'Maximum model space distance between geometric entities at asserted c
onnectivities');
#456=UNCERTAINTY_MEASURE_WITH_UNIT(LENGTH_MEASURE(0.01),#465,
'DISTANCE_ACCURACY_VALUE',
'Maximum model space distance between geometric entities at asserted c
onnectivities');
#457=UNCERTAINTY_MEASURE_WITH_UNIT(LENGTH_MEASURE(0.01),#465,
'DISTANCE_ACCURACY_VALUE',
'Maximum model space distance between geometric entities at asserted c
onnectivities');
#458=UNCERTAINTY_MEASURE_WITH_UNIT(LENGTH_MEASURE(0.01),#465,
'DISTANCE_ACCURACY_VALUE',
'Maximum model space distance between geometric entities at asserted c
onnectivities');
#459=UNCERTAINTY_MEASURE_WITH_UNIT(LENGTH_MEASURE(0.01),#465,
'DISTANCE_ACCURACY_VALUE',
'Maximum model space distance between geometric entities at asserted c
onnectivities');
#460=(
GEOMETRIC_REPRESENTATION_CONTEXT(3)
GLOBAL_UNCERTAINTY_ASSIGNED_CONTEXT((#455))
GLOBAL_UNIT_ASSIGNED_CONTEXT((#465,#467,#468))
REPRESENTATION_CONTEXT('','3D')
);
#461=(
GEOMETRIC_REPRESENTATION_CONTEXT(3)
GLOBAL_UNCERTAINTY_ASSIGNED_CONTEXT((#456))
GLOBAL_UNIT_ASSIGNED_CONTEXT((#465,#467,#468))
REPRESENTATION_CONTEXT('','3D')
);
#462=(
GEOMETRIC_REPRESENTATION_CONTEXT(3)
GLOBAL_UNCERTAINTY_ASSIGNED_CONTEXT((#457))
GLOBAL_UNIT_ASSIGNED_CONTEXT((#465,#467,#468))
REPRESENTATION_CONTEXT('','3D')
);
#463=(
GEOMETRIC_REPRESENTATION_CONTEXT(3)
GLOBAL_UNCERTAINTY_ASSIGNED_CONTEXT((#458))
GLOBAL_UNIT_ASSIGNED_CONTEXT((#465,#467,#468))
REPRESENTATION_CONTEXT('','3D')
);
#464=(
GEOMETRIC_REPRESENTATION_CONTEXT(3)
GLOBAL_UNCERTAINTY_ASSIGNED_CONTEXT((#459))
GLOBAL_UNIT_ASSIGNED_CONTEXT((#465,#467,#468))
REPRESENTATION_CONTEXT('','3D')
);
#465=(
LENGTH_UNIT()
NAMED_UNIT(*)
SI_UNIT(.MILLI.,.METRE.)
);
#466=(
LENGTH_UNIT()
NAMED_UNIT(*)
SI_UNIT(.CENTI.,.METRE.)
);
#467=(
NAMED_UNIT(*)
PLANE_ANGLE_UNIT()
SI_UNIT($,.RADIAN.)
);
#468=(
NAMED_UNIT(*)
SI_UNIT($,.STERADIAN.)
SOLID_ANGLE_UNIT()
);
#469=SHAPE_DEFINITION_REPRESENTATION(#473,#480);
#470=SHAPE_DEFINITION_REPRESENTATION(#474,#481);
#471=SHAPE_DEFINITION_REPRESENTATION(#475,#482);
#472=SHAPE_DEFINITION_REPRESENTATION(#476,#483);
#473=PRODUCT_DEFINITION_SHAPE('',$,#485);
#474=PRODUCT_DEFINITION_SHAPE('',$,#486);
#475=PRODUCT_DEFINITION_SHAPE('',$,#487);
#476=PRODUCT_DEFINITION_SHAPE('',$,#488);
#477=PRODUCT_DEFINITION_SHAPE($,$,#20);
#478=PRODUCT_DEFINITION_SHAPE($,$,#21);
#479=PRODUCT_DEFINITION_SHAPE($,$,#22);
#480=SHAPE_REPRESENTATION('',(#287,#319,#320,#321),#460);
#481=SHAPE_REPRESENTATION('',(#288),#461);
#482=SHAPE_REPRESENTATION('',(#304),#462);
#483=SHAPE_REPRESENTATION('',(#310),#463);
#484=PRODUCT_DEFINITION_CONTEXT('part definition',#498,'design');
#485=PRODUCT_DEFINITION('GM17406','GM17406',#489,#484);
#486=PRODUCT_DEFINITION('E0121248','E0121248',#490,#484);
#487=PRODUCT_DEFINITION('E0121250','E0121250',#491,#484);
#488=PRODUCT_DEFINITION('E0121249','E0121249',#492,#484);
#489=PRODUCT_DEFINITION_FORMATION('-',$,#500);
#490=PRODUCT_DEFINITION_FORMATION('-',$,#501);
#491=PRODUCT_DEFINITION_FORMATION('-',$,#502);
#492=PRODUCT_DEFINITION_FORMATION('-',$,#503);
#493=PRODUCT_RELATED_PRODUCT_CATEGORY('GM17406','GM17406',(#500));
#494=PRODUCT_RELATED_PRODUCT_CATEGORY('E0121248','E0121248',(#501));
#495=PRODUCT_RELATED_PRODUCT_CATEGORY('E0121250','E0121250',(#502));
#496=PRODUCT_RELATED_PRODUCT_CATEGORY('E0121249','E0121249',(#503));
#497=APPLICATION_PROTOCOL_DEFINITION('international standard',
'automotive_design',2009,#498);
#498=APPLICATION_CONTEXT(
'Core Data for Automotive Mechanical Design Process');
#499=PRODUCT_CONTEXT('part definition',#498,'mechanical');
#500=PRODUCT('GM17406','GM17406',$,(#499));
#501=PRODUCT('E0121248','E0121248',$,(#499));
#502=PRODUCT('E0121250','E0121250',$,(#499));
#503=PRODUCT('E0121249','E0121249',$,(#499));
ENDSEC;
END-ISO-10303-21;
