ISO-10303-21;
HEADER;
/* Generated by software containing ST-Developer
 * from STEP Tools, Inc. (www.steptools.com) 
 */

FILE_DESCRIPTION(
/* description */ (''),
/* implementation_level */ '2;1');

FILE_NAME(
/* name */ 
'C:\\Workspace\\Documents\\Manufacturing\\33\\E\\Potmagneten\\GM17429\\
GM17429 -.stp',
/* time_stamp */ '2019-09-30T15:02:24+02:00',
/* author */ ('PV'),
/* organization */ (''),
/* preprocessor_version */ 'ST-DEVELOPER v17.2',
/* originating_system */ 'Autodesk Inventor 2019',
/* authorisation */ '');

FILE_SCHEMA (('AUTOMOTIVE_DESIGN { 1 0 10303 214 3 1 1 }'));
ENDSEC;

DATA;
#10=MECHANICAL_DESIGN_GEOMETRIC_PRESENTATION_REPRESENTATION('',(#29,#30,
#31,#32,#33,#34,#35,#36),#607);
#11=ITEM_DEFINED_TRANSFORMATION($,$,#363,#407);
#12=ITEM_DEFINED_TRANSFORMATION($,$,#382,#408);
#13=ITEM_DEFINED_TRANSFORMATION($,$,#398,#409);
#14=(
REPRESENTATION_RELATIONSHIP($,$,#624,#623)
REPRESENTATION_RELATIONSHIP_WITH_TRANSFORMATION(#11)
SHAPE_REPRESENTATION_RELATIONSHIP()
);
#15=(
REPRESENTATION_RELATIONSHIP($,$,#625,#623)
REPRESENTATION_RELATIONSHIP_WITH_TRANSFORMATION(#12)
SHAPE_REPRESENTATION_RELATIONSHIP()
);
#16=(
REPRESENTATION_RELATIONSHIP($,$,#626,#623)
REPRESENTATION_RELATIONSHIP_WITH_TRANSFORMATION(#13)
SHAPE_REPRESENTATION_RELATIONSHIP()
);
#17=CONTEXT_DEPENDENT_SHAPE_REPRESENTATION(#14,#620);
#18=CONTEXT_DEPENDENT_SHAPE_REPRESENTATION(#15,#621);
#19=CONTEXT_DEPENDENT_SHAPE_REPRESENTATION(#16,#622);
#20=NEXT_ASSEMBLY_USAGE_OCCURRENCE('E0121380/- - OUTER HOUSING:1',
'E0121380/- - OUTER HOUSING:1','E0121380/- - OUTER HOUSING:1',#628,#629,
'E0121380/- - OUTER HOUSING:1');
#21=NEXT_ASSEMBLY_USAGE_OCCURRENCE('E0121382/- - MAGNET:1',
'E0121382/- - MAGNET:1','E0121382/- - MAGNET:1',#628,#630,
'E0121382/- - MAGNET:1');
#22=NEXT_ASSEMBLY_USAGE_OCCURRENCE('E0121381/- - GLUE:1',
'E0121381/- - GLUE:1','E0121381/- - GLUE:1',#628,#631,
'E0121381/- - GLUE:1');
#23=SHAPE_REPRESENTATION_RELATIONSHIP('SRR','None',#624,#26);
#24=SHAPE_REPRESENTATION_RELATIONSHIP('SRR','None',#625,#27);
#25=SHAPE_REPRESENTATION_RELATIONSHIP('SRR','None',#626,#28);
#26=ADVANCED_BREP_SHAPE_REPRESENTATION('',(#37),#604);
#27=ADVANCED_BREP_SHAPE_REPRESENTATION('',(#38),#605);
#28=ADVANCED_BREP_SHAPE_REPRESENTATION('',(#39),#606);
#29=STYLED_ITEM('',(#329),#37);
#30=STYLED_ITEM('',(#330),#283);
#31=STYLED_ITEM('',(#330),#284);
#32=STYLED_ITEM('',(#330),#285);
#33=STYLED_ITEM('',(#330),#286);
#34=STYLED_ITEM('',(#330),#287);
#35=STYLED_ITEM('',(#329),#38);
#36=STYLED_ITEM('',(#331),#39);
#37=MANIFOLD_SOLID_BREP('Solid2',#292);
#38=MANIFOLD_SOLID_BREP('Solid3',#293);
#39=MANIFOLD_SOLID_BREP('Solid2',#294);
#40=FACE_BOUND('',#78,.T.);
#41=FACE_BOUND('',#81,.T.);
#42=FACE_BOUND('',#84,.T.);
#43=FACE_BOUND('',#88,.T.);
#44=FACE_BOUND('',#91,.T.);
#45=FACE_BOUND('',#95,.T.);
#46=FACE_BOUND('',#97,.T.);
#47=PLANE('',#374);
#48=PLANE('',#377);
#49=PLANE('',#381);
#50=PLANE('',#391);
#51=PLANE('',#397);
#52=PLANE('',#405);
#53=PLANE('',#406);
#54=CONICAL_SURFACE('',#367,19.85,0.785398163397448);
#55=CONICAL_SURFACE('',#375,19.95,0.785398163397448);
#56=CONICAL_SURFACE('',#388,3.95,0.785398163397448);
#57=FACE_OUTER_BOUND('',#74,.T.);
#58=FACE_OUTER_BOUND('',#75,.T.);
#59=FACE_OUTER_BOUND('',#76,.T.);
#60=FACE_OUTER_BOUND('',#77,.T.);
#61=FACE_OUTER_BOUND('',#79,.T.);
#62=FACE_OUTER_BOUND('',#80,.T.);
#63=FACE_OUTER_BOUND('',#82,.T.);
#64=FACE_OUTER_BOUND('',#83,.T.);
#65=FACE_OUTER_BOUND('',#85,.T.);
#66=FACE_OUTER_BOUND('',#86,.T.);
#67=FACE_OUTER_BOUND('',#87,.T.);
#68=FACE_OUTER_BOUND('',#89,.T.);
#69=FACE_OUTER_BOUND('',#90,.T.);
#70=FACE_OUTER_BOUND('',#92,.T.);
#71=FACE_OUTER_BOUND('',#93,.T.);
#72=FACE_OUTER_BOUND('',#94,.T.);
#73=FACE_OUTER_BOUND('',#96,.T.);
#74=EDGE_LOOP('',(#200,#201,#202,#203));
#75=EDGE_LOOP('',(#204,#205,#206,#207,#208));
#76=EDGE_LOOP('',(#209,#210,#211,#212,#213,#214));
#77=EDGE_LOOP('',(#215));
#78=EDGE_LOOP('',(#216));
#79=EDGE_LOOP('',(#217,#218,#219,#220,#221));
#80=EDGE_LOOP('',(#222));
#81=EDGE_LOOP('',(#223));
#82=EDGE_LOOP('',(#224,#225,#226,#227));
#83=EDGE_LOOP('',(#228));
#84=EDGE_LOOP('',(#229));
#85=EDGE_LOOP('',(#230,#231,#232,#233,#234,#235));
#86=EDGE_LOOP('',(#236,#237,#238,#239,#240,#241));
#87=EDGE_LOOP('',(#242,#243));
#88=EDGE_LOOP('',(#244,#245));
#89=EDGE_LOOP('',(#246,#247,#248,#249,#250,#251));
#90=EDGE_LOOP('',(#252,#253));
#91=EDGE_LOOP('',(#254,#255));
#92=EDGE_LOOP('',(#256,#257,#258,#259));
#93=EDGE_LOOP('',(#260,#261,#262,#263));
#94=EDGE_LOOP('',(#264));
#95=EDGE_LOOP('',(#265));
#96=EDGE_LOOP('',(#266));
#97=EDGE_LOOP('',(#267));
#98=LINE('',#522,#108);
#99=LINE('',#530,#109);
#100=LINE('',#537,#110);
#101=LINE('',#542,#111);
#102=LINE('',#548,#112);
#103=LINE('',#557,#113);
#104=LINE('',#564,#114);
#105=LINE('',#578,#115);
#106=LINE('',#585,#116);
#107=LINE('',#591,#117);
#108=VECTOR('',#418,2.75);
#109=VECTOR('',#427,19.85);
#110=VECTOR('',#436,20.);
#111=VECTOR('',#443,19.95);
#112=VECTOR('',#450,17.5);
#113=VECTOR('',#461,2.75);
#114=VECTOR('',#470,3.95);
#115=VECTOR('',#487,17.2);
#116=VECTOR('',#496,17.2);
#117=VECTOR('',#503,17.5);
#118=CIRCLE('',#365,2.75);
#119=CIRCLE('',#366,2.75);
#120=CIRCLE('',#368,20.);
#121=CIRCLE('',#369,20.);
#122=CIRCLE('',#370,19.7);
#123=CIRCLE('',#372,20.);
#124=CIRCLE('',#373,20.);
#125=CIRCLE('',#376,19.9);
#126=CIRCLE('',#378,17.5);
#127=CIRCLE('',#380,17.5);
#128=CIRCLE('',#384,2.75);
#129=CIRCLE('',#385,2.75);
#130=CIRCLE('',#386,2.75);
#131=CIRCLE('',#387,2.75);
#132=CIRCLE('',#389,5.15);
#133=CIRCLE('',#390,5.15);
#134=CIRCLE('',#392,17.2);
#135=CIRCLE('',#393,17.2);
#136=CIRCLE('',#395,17.2);
#137=CIRCLE('',#396,17.2);
#138=CIRCLE('',#400,17.2);
#139=CIRCLE('',#401,17.2);
#140=CIRCLE('',#403,17.5);
#141=CIRCLE('',#404,17.5);
#142=VERTEX_POINT('',#519);
#143=VERTEX_POINT('',#521);
#144=VERTEX_POINT('',#525);
#145=VERTEX_POINT('',#526);
#146=VERTEX_POINT('',#529);
#147=VERTEX_POINT('',#533);
#148=VERTEX_POINT('',#534);
#149=VERTEX_POINT('',#540);
#150=VERTEX_POINT('',#544);
#151=VERTEX_POINT('',#547);
#152=VERTEX_POINT('',#553);
#153=VERTEX_POINT('',#554);
#154=VERTEX_POINT('',#556);
#155=VERTEX_POINT('',#558);
#156=VERTEX_POINT('',#563);
#157=VERTEX_POINT('',#565);
#158=VERTEX_POINT('',#569);
#159=VERTEX_POINT('',#570);
#160=VERTEX_POINT('',#574);
#161=VERTEX_POINT('',#575);
#162=VERTEX_POINT('',#582);
#163=VERTEX_POINT('',#584);
#164=VERTEX_POINT('',#588);
#165=VERTEX_POINT('',#590);
#166=EDGE_CURVE('',#142,#142,#118,.T.);
#167=EDGE_CURVE('',#142,#143,#98,.T.);
#168=EDGE_CURVE('',#143,#143,#119,.T.);
#169=EDGE_CURVE('',#144,#145,#120,.T.);
#170=EDGE_CURVE('',#145,#144,#121,.T.);
#171=EDGE_CURVE('',#144,#146,#99,.T.);
#172=EDGE_CURVE('',#146,#146,#122,.T.);
#173=EDGE_CURVE('',#147,#148,#123,.T.);
#174=EDGE_CURVE('',#148,#147,#124,.T.);
#175=EDGE_CURVE('',#148,#145,#100,.T.);
#176=EDGE_CURVE('',#149,#149,#125,.T.);
#177=EDGE_CURVE('',#149,#147,#101,.T.);
#178=EDGE_CURVE('',#150,#150,#126,.T.);
#179=EDGE_CURVE('',#150,#151,#102,.T.);
#180=EDGE_CURVE('',#151,#151,#127,.T.);
#181=EDGE_CURVE('',#152,#153,#128,.T.);
#182=EDGE_CURVE('',#153,#154,#103,.T.);
#183=EDGE_CURVE('',#155,#154,#129,.T.);
#184=EDGE_CURVE('',#154,#155,#130,.T.);
#185=EDGE_CURVE('',#153,#152,#131,.T.);
#186=EDGE_CURVE('',#154,#156,#104,.T.);
#187=EDGE_CURVE('',#157,#156,#132,.T.);
#188=EDGE_CURVE('',#156,#157,#133,.T.);
#189=EDGE_CURVE('',#158,#159,#134,.T.);
#190=EDGE_CURVE('',#159,#158,#135,.T.);
#191=EDGE_CURVE('',#160,#161,#136,.T.);
#192=EDGE_CURVE('',#161,#160,#137,.T.);
#193=EDGE_CURVE('',#161,#159,#105,.T.);
#194=EDGE_CURVE('',#162,#162,#138,.T.);
#195=EDGE_CURVE('',#162,#163,#106,.T.);
#196=EDGE_CURVE('',#163,#163,#139,.T.);
#197=EDGE_CURVE('',#164,#164,#140,.T.);
#198=EDGE_CURVE('',#164,#165,#107,.T.);
#199=EDGE_CURVE('',#165,#165,#141,.T.);
#200=ORIENTED_EDGE('',*,*,#166,.F.);
#201=ORIENTED_EDGE('',*,*,#167,.T.);
#202=ORIENTED_EDGE('',*,*,#168,.F.);
#203=ORIENTED_EDGE('',*,*,#167,.F.);
#204=ORIENTED_EDGE('',*,*,#169,.T.);
#205=ORIENTED_EDGE('',*,*,#170,.T.);
#206=ORIENTED_EDGE('',*,*,#171,.T.);
#207=ORIENTED_EDGE('',*,*,#172,.T.);
#208=ORIENTED_EDGE('',*,*,#171,.F.);
#209=ORIENTED_EDGE('',*,*,#173,.F.);
#210=ORIENTED_EDGE('',*,*,#174,.F.);
#211=ORIENTED_EDGE('',*,*,#175,.T.);
#212=ORIENTED_EDGE('',*,*,#169,.F.);
#213=ORIENTED_EDGE('',*,*,#170,.F.);
#214=ORIENTED_EDGE('',*,*,#175,.F.);
#215=ORIENTED_EDGE('',*,*,#172,.F.);
#216=ORIENTED_EDGE('',*,*,#168,.T.);
#217=ORIENTED_EDGE('',*,*,#176,.T.);
#218=ORIENTED_EDGE('',*,*,#177,.T.);
#219=ORIENTED_EDGE('',*,*,#173,.T.);
#220=ORIENTED_EDGE('',*,*,#174,.T.);
#221=ORIENTED_EDGE('',*,*,#177,.F.);
#222=ORIENTED_EDGE('',*,*,#176,.F.);
#223=ORIENTED_EDGE('',*,*,#178,.T.);
#224=ORIENTED_EDGE('',*,*,#178,.F.);
#225=ORIENTED_EDGE('',*,*,#179,.T.);
#226=ORIENTED_EDGE('',*,*,#180,.T.);
#227=ORIENTED_EDGE('',*,*,#179,.F.);
#228=ORIENTED_EDGE('',*,*,#180,.F.);
#229=ORIENTED_EDGE('',*,*,#166,.T.);
#230=ORIENTED_EDGE('',*,*,#181,.T.);
#231=ORIENTED_EDGE('',*,*,#182,.T.);
#232=ORIENTED_EDGE('',*,*,#183,.F.);
#233=ORIENTED_EDGE('',*,*,#184,.F.);
#234=ORIENTED_EDGE('',*,*,#182,.F.);
#235=ORIENTED_EDGE('',*,*,#185,.T.);
#236=ORIENTED_EDGE('',*,*,#183,.T.);
#237=ORIENTED_EDGE('',*,*,#186,.T.);
#238=ORIENTED_EDGE('',*,*,#187,.F.);
#239=ORIENTED_EDGE('',*,*,#188,.F.);
#240=ORIENTED_EDGE('',*,*,#186,.F.);
#241=ORIENTED_EDGE('',*,*,#184,.T.);
#242=ORIENTED_EDGE('',*,*,#189,.F.);
#243=ORIENTED_EDGE('',*,*,#190,.F.);
#244=ORIENTED_EDGE('',*,*,#187,.T.);
#245=ORIENTED_EDGE('',*,*,#188,.T.);
#246=ORIENTED_EDGE('',*,*,#191,.F.);
#247=ORIENTED_EDGE('',*,*,#192,.F.);
#248=ORIENTED_EDGE('',*,*,#193,.T.);
#249=ORIENTED_EDGE('',*,*,#190,.T.);
#250=ORIENTED_EDGE('',*,*,#189,.T.);
#251=ORIENTED_EDGE('',*,*,#193,.F.);
#252=ORIENTED_EDGE('',*,*,#191,.T.);
#253=ORIENTED_EDGE('',*,*,#192,.T.);
#254=ORIENTED_EDGE('',*,*,#181,.F.);
#255=ORIENTED_EDGE('',*,*,#185,.F.);
#256=ORIENTED_EDGE('',*,*,#194,.F.);
#257=ORIENTED_EDGE('',*,*,#195,.T.);
#258=ORIENTED_EDGE('',*,*,#196,.F.);
#259=ORIENTED_EDGE('',*,*,#195,.F.);
#260=ORIENTED_EDGE('',*,*,#197,.F.);
#261=ORIENTED_EDGE('',*,*,#198,.T.);
#262=ORIENTED_EDGE('',*,*,#199,.F.);
#263=ORIENTED_EDGE('',*,*,#198,.F.);
#264=ORIENTED_EDGE('',*,*,#199,.T.);
#265=ORIENTED_EDGE('',*,*,#194,.T.);
#266=ORIENTED_EDGE('',*,*,#197,.T.);
#267=ORIENTED_EDGE('',*,*,#196,.T.);
#268=CYLINDRICAL_SURFACE('',#364,2.75);
#269=CYLINDRICAL_SURFACE('',#371,20.);
#270=CYLINDRICAL_SURFACE('',#379,17.5);
#271=CYLINDRICAL_SURFACE('',#383,2.75);
#272=CYLINDRICAL_SURFACE('',#394,17.2);
#273=CYLINDRICAL_SURFACE('',#399,17.2);
#274=CYLINDRICAL_SURFACE('',#402,17.5);
#275=ADVANCED_FACE('',(#57),#268,.F.);
#276=ADVANCED_FACE('',(#58),#54,.T.);
#277=ADVANCED_FACE('',(#59),#269,.T.);
#278=ADVANCED_FACE('',(#60,#40),#47,.T.);
#279=ADVANCED_FACE('',(#61),#55,.T.);
#280=ADVANCED_FACE('',(#62,#41),#48,.T.);
#281=ADVANCED_FACE('',(#63),#270,.F.);
#282=ADVANCED_FACE('',(#64,#42),#49,.F.);
#283=ADVANCED_FACE('',(#65),#271,.F.);
#284=ADVANCED_FACE('',(#66),#56,.F.);
#285=ADVANCED_FACE('',(#67,#43),#50,.T.);
#286=ADVANCED_FACE('',(#68),#272,.T.);
#287=ADVANCED_FACE('',(#69,#44),#51,.T.);
#288=ADVANCED_FACE('',(#70),#273,.F.);
#289=ADVANCED_FACE('',(#71),#274,.T.);
#290=ADVANCED_FACE('',(#72,#45),#52,.F.);
#291=ADVANCED_FACE('',(#73,#46),#53,.T.);
#292=CLOSED_SHELL('',(#275,#276,#277,#278,#279,#280,#281,#282));
#293=CLOSED_SHELL('',(#283,#284,#285,#286,#287));
#294=CLOSED_SHELL('',(#288,#289,#290,#291));
#295=DERIVED_UNIT_ELEMENT(#301,1.);
#296=DERIVED_UNIT_ELEMENT(#609,3.);
#297=DERIVED_UNIT_ELEMENT(#301,1.);
#298=DERIVED_UNIT_ELEMENT(#609,3.);
#299=DERIVED_UNIT_ELEMENT(#301,1.);
#300=DERIVED_UNIT_ELEMENT(#609,3.);
#301=(
MASS_UNIT()
NAMED_UNIT(*)
SI_UNIT($,.GRAM.)
);
#302=DERIVED_UNIT((#295,#296));
#303=DERIVED_UNIT((#297,#298));
#304=DERIVED_UNIT((#299,#300));
#305=MEASURE_REPRESENTATION_ITEM('density measure',
POSITIVE_RATIO_MEASURE(7.85),#302);
#306=MEASURE_REPRESENTATION_ITEM('density measure',
POSITIVE_RATIO_MEASURE(7.85),#303);
#307=MEASURE_REPRESENTATION_ITEM('density measure',
POSITIVE_RATIO_MEASURE(1.),#304);
#308=PROPERTY_DEFINITION_REPRESENTATION(#323,#314);
#309=PROPERTY_DEFINITION_REPRESENTATION(#324,#315);
#310=PROPERTY_DEFINITION_REPRESENTATION(#325,#316);
#311=PROPERTY_DEFINITION_REPRESENTATION(#326,#317);
#312=PROPERTY_DEFINITION_REPRESENTATION(#327,#318);
#313=PROPERTY_DEFINITION_REPRESENTATION(#328,#319);
#314=REPRESENTATION('material name',(#320),#604);
#315=REPRESENTATION('density',(#305),#604);
#316=REPRESENTATION('material name',(#321),#605);
#317=REPRESENTATION('density',(#306),#605);
#318=REPRESENTATION('material name',(#322),#606);
#319=REPRESENTATION('density',(#307),#606);
#320=DESCRIPTIVE_REPRESENTATION_ITEM('Steel, Carbon','Steel, Carbon');
#321=DESCRIPTIVE_REPRESENTATION_ITEM('Steel, Carbon','Steel, Carbon');
#322=DESCRIPTIVE_REPRESENTATION_ITEM('PE','PE');
#323=PROPERTY_DEFINITION('material property','material name',#629);
#324=PROPERTY_DEFINITION('material property','density of part',#629);
#325=PROPERTY_DEFINITION('material property','material name',#630);
#326=PROPERTY_DEFINITION('material property','density of part',#630);
#327=PROPERTY_DEFINITION('material property','material name',#631);
#328=PROPERTY_DEFINITION('material property','density of part',#631);
#329=PRESENTATION_STYLE_ASSIGNMENT((#332));
#330=PRESENTATION_STYLE_ASSIGNMENT((#333));
#331=PRESENTATION_STYLE_ASSIGNMENT((#334));
#332=SURFACE_STYLE_USAGE(.BOTH.,#341);
#333=SURFACE_STYLE_USAGE(.BOTH.,#342);
#334=SURFACE_STYLE_USAGE(.BOTH.,#343);
#335=SURFACE_STYLE_RENDERING_WITH_PROPERTIES($,#353,(#338));
#336=SURFACE_STYLE_RENDERING_WITH_PROPERTIES($,#354,(#339));
#337=SURFACE_STYLE_RENDERING_WITH_PROPERTIES($,#355,(#340));
#338=SURFACE_STYLE_TRANSPARENT(0.);
#339=SURFACE_STYLE_TRANSPARENT(0.);
#340=SURFACE_STYLE_TRANSPARENT(0.);
#341=SURFACE_SIDE_STYLE('',(#344,#335));
#342=SURFACE_SIDE_STYLE('',(#345,#336));
#343=SURFACE_SIDE_STYLE('',(#346,#337));
#344=SURFACE_STYLE_FILL_AREA(#347);
#345=SURFACE_STYLE_FILL_AREA(#348);
#346=SURFACE_STYLE_FILL_AREA(#349);
#347=FILL_AREA_STYLE('',(#350));
#348=FILL_AREA_STYLE('',(#351));
#349=FILL_AREA_STYLE('',(#352));
#350=FILL_AREA_STYLE_COLOUR('',#353);
#351=FILL_AREA_STYLE_COLOUR('',#354);
#352=FILL_AREA_STYLE_COLOUR('',#355);
#353=COLOUR_RGB('',0.745098039215686,0.737254901960784,0.729411764705882);
#354=COLOUR_RGB('',0.501960784313725,1.,0.501960784313725);
#355=COLOUR_RGB('',0.,0.,0.);
#356=DATE_TIME_ROLE('creation_date');
#357=APPLIED_DATE_AND_TIME_ASSIGNMENT(#358,#356,(#628));
#358=DATE_AND_TIME(#359,#360);
#359=CALENDAR_DATE(2019,25,8);
#360=LOCAL_TIME(22,0,0.,#361);
#361=COORDINATED_UNIVERSAL_TIME_OFFSET(0,0,.BEHIND.);
#362=AXIS2_PLACEMENT_3D('placement',#516,#410,#411);
#363=AXIS2_PLACEMENT_3D('placement',#517,#412,#413);
#364=AXIS2_PLACEMENT_3D('',#518,#414,#415);
#365=AXIS2_PLACEMENT_3D('',#520,#416,#417);
#366=AXIS2_PLACEMENT_3D('',#523,#419,#420);
#367=AXIS2_PLACEMENT_3D('',#524,#421,#422);
#368=AXIS2_PLACEMENT_3D('',#527,#423,#424);
#369=AXIS2_PLACEMENT_3D('',#528,#425,#426);
#370=AXIS2_PLACEMENT_3D('',#531,#428,#429);
#371=AXIS2_PLACEMENT_3D('',#532,#430,#431);
#372=AXIS2_PLACEMENT_3D('',#535,#432,#433);
#373=AXIS2_PLACEMENT_3D('',#536,#434,#435);
#374=AXIS2_PLACEMENT_3D('',#538,#437,#438);
#375=AXIS2_PLACEMENT_3D('',#539,#439,#440);
#376=AXIS2_PLACEMENT_3D('',#541,#441,#442);
#377=AXIS2_PLACEMENT_3D('',#543,#444,#445);
#378=AXIS2_PLACEMENT_3D('',#545,#446,#447);
#379=AXIS2_PLACEMENT_3D('',#546,#448,#449);
#380=AXIS2_PLACEMENT_3D('',#549,#451,#452);
#381=AXIS2_PLACEMENT_3D('',#550,#453,#454);
#382=AXIS2_PLACEMENT_3D('placement',#551,#455,#456);
#383=AXIS2_PLACEMENT_3D('',#552,#457,#458);
#384=AXIS2_PLACEMENT_3D('',#555,#459,#460);
#385=AXIS2_PLACEMENT_3D('',#559,#462,#463);
#386=AXIS2_PLACEMENT_3D('',#560,#464,#465);
#387=AXIS2_PLACEMENT_3D('',#561,#466,#467);
#388=AXIS2_PLACEMENT_3D('',#562,#468,#469);
#389=AXIS2_PLACEMENT_3D('',#566,#471,#472);
#390=AXIS2_PLACEMENT_3D('',#567,#473,#474);
#391=AXIS2_PLACEMENT_3D('',#568,#475,#476);
#392=AXIS2_PLACEMENT_3D('',#571,#477,#478);
#393=AXIS2_PLACEMENT_3D('',#572,#479,#480);
#394=AXIS2_PLACEMENT_3D('',#573,#481,#482);
#395=AXIS2_PLACEMENT_3D('',#576,#483,#484);
#396=AXIS2_PLACEMENT_3D('',#577,#485,#486);
#397=AXIS2_PLACEMENT_3D('',#579,#488,#489);
#398=AXIS2_PLACEMENT_3D('placement',#580,#490,#491);
#399=AXIS2_PLACEMENT_3D('',#581,#492,#493);
#400=AXIS2_PLACEMENT_3D('',#583,#494,#495);
#401=AXIS2_PLACEMENT_3D('',#586,#497,#498);
#402=AXIS2_PLACEMENT_3D('',#587,#499,#500);
#403=AXIS2_PLACEMENT_3D('',#589,#501,#502);
#404=AXIS2_PLACEMENT_3D('',#592,#504,#505);
#405=AXIS2_PLACEMENT_3D('',#593,#506,#507);
#406=AXIS2_PLACEMENT_3D('',#594,#508,#509);
#407=AXIS2_PLACEMENT_3D('',#595,#510,#511);
#408=AXIS2_PLACEMENT_3D('',#596,#512,#513);
#409=AXIS2_PLACEMENT_3D('',#597,#514,#515);
#410=DIRECTION('axis',(0.,0.,1.));
#411=DIRECTION('refdir',(1.,0.,0.));
#412=DIRECTION('axis',(0.,0.,1.));
#413=DIRECTION('refdir',(1.,0.,0.));
#414=DIRECTION('center_axis',(0.,1.,0.));
#415=DIRECTION('ref_axis',(-1.,0.,0.));
#416=DIRECTION('center_axis',(0.,1.,0.));
#417=DIRECTION('ref_axis',(-1.,0.,0.));
#418=DIRECTION('',(0.,1.,0.));
#419=DIRECTION('center_axis',(0.,-1.,0.));
#420=DIRECTION('ref_axis',(-1.,0.,0.));
#421=DIRECTION('center_axis',(0.,-1.,0.));
#422=DIRECTION('ref_axis',(-1.,0.,0.));
#423=DIRECTION('center_axis',(0.,1.,0.));
#424=DIRECTION('ref_axis',(-1.,0.,0.));
#425=DIRECTION('center_axis',(0.,1.,0.));
#426=DIRECTION('ref_axis',(-1.,0.,0.));
#427=DIRECTION('',(-0.707106781186548,0.707106781186548,-8.65956056235493E-17));
#428=DIRECTION('center_axis',(0.,-1.,0.));
#429=DIRECTION('ref_axis',(-1.,0.,0.));
#430=DIRECTION('center_axis',(0.,-1.,0.));
#431=DIRECTION('ref_axis',(1.,0.,0.));
#432=DIRECTION('center_axis',(0.,-1.,0.));
#433=DIRECTION('ref_axis',(-1.,0.,0.));
#434=DIRECTION('center_axis',(0.,-1.,0.));
#435=DIRECTION('ref_axis',(-1.,0.,0.));
#436=DIRECTION('',(0.,1.,0.));
#437=DIRECTION('center_axis',(0.,1.,0.));
#438=DIRECTION('ref_axis',(0.,0.,1.));
#439=DIRECTION('center_axis',(0.,1.,0.));
#440=DIRECTION('ref_axis',(-1.,0.,0.));
#441=DIRECTION('center_axis',(0.,1.,0.));
#442=DIRECTION('ref_axis',(-1.,0.,0.));
#443=DIRECTION('',(0.707106781186548,0.707106781186548,8.65956056235493E-17));
#444=DIRECTION('center_axis',(0.,-1.,0.));
#445=DIRECTION('ref_axis',(0.,0.,-1.));
#446=DIRECTION('center_axis',(0.,1.,0.));
#447=DIRECTION('ref_axis',(-1.,0.,0.));
#448=DIRECTION('center_axis',(0.,1.,0.));
#449=DIRECTION('ref_axis',(-1.,0.,0.));
#450=DIRECTION('',(0.,1.,0.));
#451=DIRECTION('center_axis',(0.,1.,0.));
#452=DIRECTION('ref_axis',(-1.,0.,0.));
#453=DIRECTION('center_axis',(0.,1.,0.));
#454=DIRECTION('ref_axis',(0.,0.,1.));
#455=DIRECTION('axis',(0.,0.,1.));
#456=DIRECTION('refdir',(1.,0.,0.));
#457=DIRECTION('center_axis',(1.,1.15648231731787E-16,0.));
#458=DIRECTION('ref_axis',(-1.15648231731787E-16,1.,0.));
#459=DIRECTION('center_axis',(1.,1.15648231731787E-16,0.));
#460=DIRECTION('ref_axis',(0.,0.,-1.));
#461=DIRECTION('',(-1.,-1.15648231731787E-16,0.));
#462=DIRECTION('center_axis',(1.,1.15648231731787E-16,0.));
#463=DIRECTION('ref_axis',(0.,0.,-1.));
#464=DIRECTION('center_axis',(1.,1.15648231731787E-16,0.));
#465=DIRECTION('ref_axis',(0.,0.,-1.));
#466=DIRECTION('center_axis',(1.,1.15648231731787E-16,0.));
#467=DIRECTION('ref_axis',(0.,0.,-1.));
#468=DIRECTION('center_axis',(-1.,-1.15648231731787E-16,0.));
#469=DIRECTION('ref_axis',(-1.15648231731787E-16,1.,0.));
#470=DIRECTION('',(-0.707106781186548,-0.707106781186547,-8.65956056235493E-17));
#471=DIRECTION('center_axis',(1.,1.15648231731787E-16,0.));
#472=DIRECTION('ref_axis',(0.,0.,-1.));
#473=DIRECTION('center_axis',(1.,1.15648231731787E-16,0.));
#474=DIRECTION('ref_axis',(0.,0.,-1.));
#475=DIRECTION('center_axis',(-1.,-1.15648231731787E-16,0.));
#476=DIRECTION('ref_axis',(0.,0.,1.));
#477=DIRECTION('center_axis',(1.,1.15648231731787E-16,0.));
#478=DIRECTION('ref_axis',(0.,0.,-1.));
#479=DIRECTION('center_axis',(1.,1.15648231731787E-16,0.));
#480=DIRECTION('ref_axis',(0.,0.,-1.));
#481=DIRECTION('center_axis',(1.,1.15648231731787E-16,0.));
#482=DIRECTION('ref_axis',(-1.15648231731787E-16,1.,0.));
#483=DIRECTION('center_axis',(1.,1.15648231731787E-16,0.));
#484=DIRECTION('ref_axis',(0.,0.,-1.));
#485=DIRECTION('center_axis',(1.,1.15648231731787E-16,0.));
#486=DIRECTION('ref_axis',(0.,0.,-1.));
#487=DIRECTION('',(-1.,-1.15648231731787E-16,0.));
#488=DIRECTION('center_axis',(1.,1.15648231731787E-16,0.));
#489=DIRECTION('ref_axis',(0.,0.,-1.));
#490=DIRECTION('axis',(0.,0.,1.));
#491=DIRECTION('refdir',(1.,0.,0.));
#492=DIRECTION('center_axis',(0.,1.,0.));
#493=DIRECTION('ref_axis',(1.,0.,0.));
#494=DIRECTION('center_axis',(0.,1.,0.));
#495=DIRECTION('ref_axis',(1.,0.,0.));
#496=DIRECTION('',(0.,1.,0.));
#497=DIRECTION('center_axis',(0.,-1.,0.));
#498=DIRECTION('ref_axis',(1.,0.,0.));
#499=DIRECTION('center_axis',(0.,1.,0.));
#500=DIRECTION('ref_axis',(1.,0.,0.));
#501=DIRECTION('center_axis',(0.,1.,0.));
#502=DIRECTION('ref_axis',(1.,0.,0.));
#503=DIRECTION('',(0.,-1.,0.));
#504=DIRECTION('center_axis',(0.,-1.,0.));
#505=DIRECTION('ref_axis',(1.,0.,0.));
#506=DIRECTION('center_axis',(0.,1.,0.));
#507=DIRECTION('ref_axis',(0.,0.,1.));
#508=DIRECTION('center_axis',(0.,1.,0.));
#509=DIRECTION('ref_axis',(0.,0.,1.));
#510=DIRECTION('',(0.,0.,1.));
#511=DIRECTION('',(1.,0.,0.));
#512=DIRECTION('',(-0.660749756857358,-6.22103751081293E-16,0.750606260840491));
#513=DIRECTION('',(-1.94289029309403E-15,1.,-8.81501490462142E-16));
#514=DIRECTION('',(-0.377258894201885,0.,0.926107837535981));
#515=DIRECTION('',(0.926107837535981,0.,0.377258894201885));
#516=CARTESIAN_POINT('',(0.,0.,0.));
#517=CARTESIAN_POINT('',(0.,0.,0.));
#518=CARTESIAN_POINT('Origin',(0.,6.,0.));
#519=CARTESIAN_POINT('',(2.75,6.,3.36777869765522E-16));
#520=CARTESIAN_POINT('Origin',(0.,6.,0.));
#521=CARTESIAN_POINT('',(2.75,8.,3.36777869765522E-16));
#522=CARTESIAN_POINT('',(2.75,6.,-3.36777869765522E-16));
#523=CARTESIAN_POINT('Origin',(0.,8.,0.));
#524=CARTESIAN_POINT('Origin',(0.,7.85,0.));
#525=CARTESIAN_POINT('',(20.,7.7,-2.44929359829471E-15));
#526=CARTESIAN_POINT('',(-20.,7.7,-2.44929359829471E-15));
#527=CARTESIAN_POINT('Origin',(0.,7.7,0.));
#528=CARTESIAN_POINT('Origin',(0.,7.7,0.));
#529=CARTESIAN_POINT('',(19.7,8.,2.41255419432029E-15));
#530=CARTESIAN_POINT('',(19.85,7.85,2.4309238963075E-15));
#531=CARTESIAN_POINT('Origin',(0.,8.,0.));
#532=CARTESIAN_POINT('Origin',(0.,4.,0.));
#533=CARTESIAN_POINT('',(20.,0.1,2.44929359829471E-15));
#534=CARTESIAN_POINT('',(-20.,0.1,-2.44929359829471E-15));
#535=CARTESIAN_POINT('Origin',(0.,0.1,0.));
#536=CARTESIAN_POINT('Origin',(0.,0.1,0.));
#537=CARTESIAN_POINT('',(-20.,4.,-2.44929359829471E-15));
#538=CARTESIAN_POINT('Origin',(20.,8.,0.));
#539=CARTESIAN_POINT('Origin',(0.,0.05,0.));
#540=CARTESIAN_POINT('',(19.9,0.,-2.43704713030323E-15));
#541=CARTESIAN_POINT('Origin',(0.,0.,0.));
#542=CARTESIAN_POINT('',(19.95,0.05,2.44317036429897E-15));
#543=CARTESIAN_POINT('Origin',(0.,0.,0.));
#544=CARTESIAN_POINT('',(17.5,0.,2.14313189850787E-15));
#545=CARTESIAN_POINT('Origin',(0.,0.,0.));
#546=CARTESIAN_POINT('Origin',(0.,0.,0.));
#547=CARTESIAN_POINT('',(17.5,6.,2.14313189850787E-15));
#548=CARTESIAN_POINT('',(17.5,0.,-2.14313189850787E-15));
#549=CARTESIAN_POINT('Origin',(0.,6.,0.));
#550=CARTESIAN_POINT('Origin',(-1.87036274335208E-15,6.,4.22942104619107E-16));
#551=CARTESIAN_POINT('',(0.,0.,0.));
#552=CARTESIAN_POINT('Origin',(-1.8,-2.08166817117217E-16,0.));
#553=CARTESIAN_POINT('',(0.,2.75,0.));
#554=CARTESIAN_POINT('',(5.55111512312578E-16,-2.75,-3.36777869765522E-16));
#555=CARTESIAN_POINT('Origin',(3.18032637262415E-16,3.67799121323952E-32,
0.));
#556=CARTESIAN_POINT('',(-3.6,-2.75,-3.36777869765522E-16));
#557=CARTESIAN_POINT('',(-1.8,-2.75,-3.36777869765522E-16));
#558=CARTESIAN_POINT('',(-3.6,2.75,0.));
#559=CARTESIAN_POINT('Origin',(-3.59999999999999,-4.16333634234433E-16,
0.));
#560=CARTESIAN_POINT('Origin',(-3.59999999999999,-4.16333634234433E-16,
0.));
#561=CARTESIAN_POINT('Origin',(3.18032637262415E-16,3.67799121323952E-32,
0.));
#562=CARTESIAN_POINT('Origin',(-4.8,-5.55111512312578E-16,0.));
#563=CARTESIAN_POINT('',(-6.,-5.15,-6.30693101560887E-16));
#564=CARTESIAN_POINT('',(-4.8,-3.95,-4.83735485663205E-16));
#565=CARTESIAN_POINT('',(-6.,5.15,0.));
#566=CARTESIAN_POINT('Origin',(-6.,-6.93889390390723E-16,0.));
#567=CARTESIAN_POINT('Origin',(-6.,-6.93889390390723E-16,0.));
#568=CARTESIAN_POINT('Origin',(-6.00000000000001,17.2,0.));
#569=CARTESIAN_POINT('',(-6.00000000000001,17.2,0.));
#570=CARTESIAN_POINT('',(-6.,-17.2,-2.10639249453345E-15));
#571=CARTESIAN_POINT('Origin',(-6.,-6.93889390390723E-16,0.));
#572=CARTESIAN_POINT('Origin',(-6.,-6.93889390390723E-16,0.));
#573=CARTESIAN_POINT('Origin',(-3.,-3.46944695195361E-16,0.));
#574=CARTESIAN_POINT('',(0.,17.2,0.));
#575=CARTESIAN_POINT('',(4.44089209850063E-15,-17.2,-2.10639249453345E-15));
#576=CARTESIAN_POINT('Origin',(1.98914958578674E-15,2.30041632246253E-31,
0.));
#577=CARTESIAN_POINT('Origin',(1.98914958578674E-15,2.30041632246253E-31,
0.));
#578=CARTESIAN_POINT('',(-3.,-17.2,-2.10639249453345E-15));
#579=CARTESIAN_POINT('Origin',(0.,2.75,0.));
#580=CARTESIAN_POINT('',(0.,0.,0.));
#581=CARTESIAN_POINT('Origin',(0.,0.,0.));
#582=CARTESIAN_POINT('',(-17.2,0.,2.10639249453345E-15));
#583=CARTESIAN_POINT('Origin',(0.,0.,0.));
#584=CARTESIAN_POINT('',(-17.2,6.,2.10639249453345E-15));
#585=CARTESIAN_POINT('',(-17.2,0.,2.10639249453345E-15));
#586=CARTESIAN_POINT('Origin',(0.,6.,0.));
#587=CARTESIAN_POINT('Origin',(0.,0.,0.));
#588=CARTESIAN_POINT('',(-17.5,6.,2.14313189850787E-15));
#589=CARTESIAN_POINT('Origin',(0.,6.,0.));
#590=CARTESIAN_POINT('',(-17.5,0.,2.14313189850787E-15));
#591=CARTESIAN_POINT('',(-17.5,0.,2.14313189850787E-15));
#592=CARTESIAN_POINT('Origin',(0.,0.,0.));
#593=CARTESIAN_POINT('Origin',(1.87036274335208E-15,0.,4.22942104619107E-16));
#594=CARTESIAN_POINT('Origin',(1.87036274335208E-15,6.,4.22942104619107E-16));
#595=CARTESIAN_POINT('',(0.,0.,0.));
#596=CARTESIAN_POINT('',(6.87505791400659E-16,6.,3.45126646034193E-30));
#597=CARTESIAN_POINT('',(0.,5.55111512312578E-17,0.));
#598=UNCERTAINTY_MEASURE_WITH_UNIT(LENGTH_MEASURE(0.01),#608,
'DISTANCE_ACCURACY_VALUE',
'Maximum model space distance between geometric entities at asserted c
onnectivities');
#599=UNCERTAINTY_MEASURE_WITH_UNIT(LENGTH_MEASURE(0.01),#608,
'DISTANCE_ACCURACY_VALUE',
'Maximum model space distance between geometric entities at asserted c
onnectivities');
#600=UNCERTAINTY_MEASURE_WITH_UNIT(LENGTH_MEASURE(0.01),#608,
'DISTANCE_ACCURACY_VALUE',
'Maximum model space distance between geometric entities at asserted c
onnectivities');
#601=UNCERTAINTY_MEASURE_WITH_UNIT(LENGTH_MEASURE(0.01),#608,
'DISTANCE_ACCURACY_VALUE',
'Maximum model space distance between geometric entities at asserted c
onnectivities');
#602=UNCERTAINTY_MEASURE_WITH_UNIT(LENGTH_MEASURE(0.01),#608,
'DISTANCE_ACCURACY_VALUE',
'Maximum model space distance between geometric entities at asserted c
onnectivities');
#603=(
GEOMETRIC_REPRESENTATION_CONTEXT(3)
GLOBAL_UNCERTAINTY_ASSIGNED_CONTEXT((#598))
GLOBAL_UNIT_ASSIGNED_CONTEXT((#608,#610,#611))
REPRESENTATION_CONTEXT('','3D')
);
#604=(
GEOMETRIC_REPRESENTATION_CONTEXT(3)
GLOBAL_UNCERTAINTY_ASSIGNED_CONTEXT((#599))
GLOBAL_UNIT_ASSIGNED_CONTEXT((#608,#610,#611))
REPRESENTATION_CONTEXT('','3D')
);
#605=(
GEOMETRIC_REPRESENTATION_CONTEXT(3)
GLOBAL_UNCERTAINTY_ASSIGNED_CONTEXT((#600))
GLOBAL_UNIT_ASSIGNED_CONTEXT((#608,#610,#611))
REPRESENTATION_CONTEXT('','3D')
);
#606=(
GEOMETRIC_REPRESENTATION_CONTEXT(3)
GLOBAL_UNCERTAINTY_ASSIGNED_CONTEXT((#601))
GLOBAL_UNIT_ASSIGNED_CONTEXT((#608,#610,#611))
REPRESENTATION_CONTEXT('','3D')
);
#607=(
GEOMETRIC_REPRESENTATION_CONTEXT(3)
GLOBAL_UNCERTAINTY_ASSIGNED_CONTEXT((#602))
GLOBAL_UNIT_ASSIGNED_CONTEXT((#608,#610,#611))
REPRESENTATION_CONTEXT('','3D')
);
#608=(
LENGTH_UNIT()
NAMED_UNIT(*)
SI_UNIT(.MILLI.,.METRE.)
);
#609=(
LENGTH_UNIT()
NAMED_UNIT(*)
SI_UNIT(.CENTI.,.METRE.)
);
#610=(
NAMED_UNIT(*)
PLANE_ANGLE_UNIT()
SI_UNIT($,.RADIAN.)
);
#611=(
NAMED_UNIT(*)
SI_UNIT($,.STERADIAN.)
SOLID_ANGLE_UNIT()
);
#612=SHAPE_DEFINITION_REPRESENTATION(#616,#623);
#613=SHAPE_DEFINITION_REPRESENTATION(#617,#624);
#614=SHAPE_DEFINITION_REPRESENTATION(#618,#625);
#615=SHAPE_DEFINITION_REPRESENTATION(#619,#626);
#616=PRODUCT_DEFINITION_SHAPE('',$,#628);
#617=PRODUCT_DEFINITION_SHAPE('',$,#629);
#618=PRODUCT_DEFINITION_SHAPE('',$,#630);
#619=PRODUCT_DEFINITION_SHAPE('',$,#631);
#620=PRODUCT_DEFINITION_SHAPE($,$,#20);
#621=PRODUCT_DEFINITION_SHAPE($,$,#21);
#622=PRODUCT_DEFINITION_SHAPE($,$,#22);
#623=SHAPE_REPRESENTATION('',(#362,#407,#408,#409),#603);
#624=SHAPE_REPRESENTATION('',(#363),#604);
#625=SHAPE_REPRESENTATION('',(#382),#605);
#626=SHAPE_REPRESENTATION('',(#398),#606);
#627=PRODUCT_DEFINITION_CONTEXT('part definition',#641,'design');
#628=PRODUCT_DEFINITION('GM17429','GM17429',#632,#627);
#629=PRODUCT_DEFINITION('E0121380','E0121380',#633,#627);
#630=PRODUCT_DEFINITION('E0121382','E0121382',#634,#627);
#631=PRODUCT_DEFINITION('E0121381','E0121381',#635,#627);
#632=PRODUCT_DEFINITION_FORMATION('-',$,#643);
#633=PRODUCT_DEFINITION_FORMATION('-',$,#644);
#634=PRODUCT_DEFINITION_FORMATION('-',$,#645);
#635=PRODUCT_DEFINITION_FORMATION('-',$,#646);
#636=PRODUCT_RELATED_PRODUCT_CATEGORY('GM17429','GM17429',(#643));
#637=PRODUCT_RELATED_PRODUCT_CATEGORY('E0121380','E0121380',(#644));
#638=PRODUCT_RELATED_PRODUCT_CATEGORY('E0121382','E0121382',(#645));
#639=PRODUCT_RELATED_PRODUCT_CATEGORY('E0121381','E0121381',(#646));
#640=APPLICATION_PROTOCOL_DEFINITION('international standard',
'automotive_design',2009,#641);
#641=APPLICATION_CONTEXT(
'Core Data for Automotive Mechanical Design Process');
#642=PRODUCT_CONTEXT('part definition',#641,'mechanical');
#643=PRODUCT('GM17429','GM17429',$,(#642));
#644=PRODUCT('E0121380','E0121380',$,(#642));
#645=PRODUCT('E0121382','E0121382',$,(#642));
#646=PRODUCT('E0121381','E0121381',$,(#642));
ENDSEC;
END-ISO-10303-21;
