ISO-10303-21;
HEADER;
/* Generated by software containing ST-Developer
 * from STEP Tools, Inc. (www.steptools.com) 
 */

FILE_DESCRIPTION(
/* description */ (''),
/* implementation_level */ '2;1');

FILE_NAME(
/* name */ 
'C:\\Workspace\\Documents\\Manufacturing\\33\\E\\Pot magnets\\GM17439\\
GM17439 -.stp',
/* time_stamp */ '2019-10-01T11:23:48+02:00',
/* author */ ('PV'),
/* organization */ (''),
/* preprocessor_version */ 'ST-DEVELOPER v17.2',
/* originating_system */ 'Autodesk Inventor 2019',
/* authorisation */ '');

FILE_SCHEMA (('AUTOMOTIVE_DESIGN { 1 0 10303 214 3 1 1 }'));
ENDSEC;

DATA;
#10=MECHANICAL_DESIGN_GEOMETRIC_PRESENTATION_REPRESENTATION('',(#29,#30,
#31,#32,#33,#34,#35),#559);
#11=ITEM_DEFINED_TRANSFORMATION($,$,#346,#384);
#12=ITEM_DEFINED_TRANSFORMATION($,$,#366,#385);
#13=ITEM_DEFINED_TRANSFORMATION($,$,#375,#386);
#14=(
REPRESENTATION_RELATIONSHIP($,$,#576,#575)
REPRESENTATION_RELATIONSHIP_WITH_TRANSFORMATION(#11)
SHAPE_REPRESENTATION_RELATIONSHIP()
);
#15=(
REPRESENTATION_RELATIONSHIP($,$,#577,#575)
REPRESENTATION_RELATIONSHIP_WITH_TRANSFORMATION(#12)
SHAPE_REPRESENTATION_RELATIONSHIP()
);
#16=(
REPRESENTATION_RELATIONSHIP($,$,#578,#575)
REPRESENTATION_RELATIONSHIP_WITH_TRANSFORMATION(#13)
SHAPE_REPRESENTATION_RELATIONSHIP()
);
#17=CONTEXT_DEPENDENT_SHAPE_REPRESENTATION(#14,#572);
#18=CONTEXT_DEPENDENT_SHAPE_REPRESENTATION(#15,#573);
#19=CONTEXT_DEPENDENT_SHAPE_REPRESENTATION(#16,#574);
#20=NEXT_ASSEMBLY_USAGE_OCCURRENCE('E0120926/- - OUTER HOUSING:1',
'E0120926/- - OUTER HOUSING:1','E0120926/- - OUTER HOUSING:1',#580,#581,
'E0120926/- - OUTER HOUSING:1');
#21=NEXT_ASSEMBLY_USAGE_OCCURRENCE('E0120927/- - MAGNET:1',
'E0120927/- - MAGNET:1','E0120927/- - MAGNET:1',#580,#582,
'E0120927/- - MAGNET:1');
#22=NEXT_ASSEMBLY_USAGE_OCCURRENCE('E0120925/- - GLUE:1',
'E0120925/- - GLUE:1','E0120925/- - GLUE:1',#580,#583,
'E0120925/- - GLUE:1');
#23=SHAPE_REPRESENTATION_RELATIONSHIP('SRR','None',#576,#26);
#24=SHAPE_REPRESENTATION_RELATIONSHIP('SRR','None',#577,#27);
#25=SHAPE_REPRESENTATION_RELATIONSHIP('SRR','None',#578,#28);
#26=ADVANCED_BREP_SHAPE_REPRESENTATION('',(#36),#556);
#27=ADVANCED_BREP_SHAPE_REPRESENTATION('',(#37),#557);
#28=ADVANCED_BREP_SHAPE_REPRESENTATION('',(#38),#558);
#29=STYLED_ITEM('',(#294),#36);
#30=STYLED_ITEM('',(#295),#249);
#31=STYLED_ITEM('',(#295),#250);
#32=STYLED_ITEM('',(#295),#251);
#33=STYLED_ITEM('',(#295),#252);
#34=STYLED_ITEM('',(#294),#37);
#35=STYLED_ITEM('',(#296),#38);
#36=MANIFOLD_SOLID_BREP('Solid2',#257);
#37=MANIFOLD_SOLID_BREP('Solid2',#258);
#38=MANIFOLD_SOLID_BREP('Solid2',#259);
#39=FACE_BOUND('',#79,.T.);
#40=FACE_BOUND('',#82,.T.);
#41=FACE_BOUND('',#85,.T.);
#42=FACE_BOUND('',#90,.T.);
#43=FACE_BOUND('',#92,.T.);
#44=FACE_BOUND('',#96,.T.);
#45=FACE_BOUND('',#98,.T.);
#46=PLANE('',#354);
#47=PLANE('',#359);
#48=PLANE('',#363);
#49=PLANE('',#373);
#50=PLANE('',#374);
#51=PLANE('',#382);
#52=PLANE('',#383);
#53=CYLINDRICAL_SURFACE('',#351,20.);
#54=CYLINDRICAL_SURFACE('',#361,17.);
#55=CYLINDRICAL_SURFACE('',#365,2.1);
#56=CYLINDRICAL_SURFACE('',#367,5.25);
#57=CYLINDRICAL_SURFACE('',#370,16.);
#58=CYLINDRICAL_SURFACE('',#376,16.);
#59=CYLINDRICAL_SURFACE('',#379,17.);
#60=FACE_OUTER_BOUND('',#76,.T.);
#61=FACE_OUTER_BOUND('',#77,.T.);
#62=FACE_OUTER_BOUND('',#78,.T.);
#63=FACE_OUTER_BOUND('',#80,.T.);
#64=FACE_OUTER_BOUND('',#81,.T.);
#65=FACE_OUTER_BOUND('',#83,.T.);
#66=FACE_OUTER_BOUND('',#84,.T.);
#67=FACE_OUTER_BOUND('',#86,.T.);
#68=FACE_OUTER_BOUND('',#87,.T.);
#69=FACE_OUTER_BOUND('',#88,.T.);
#70=FACE_OUTER_BOUND('',#89,.T.);
#71=FACE_OUTER_BOUND('',#91,.T.);
#72=FACE_OUTER_BOUND('',#93,.T.);
#73=FACE_OUTER_BOUND('',#94,.T.);
#74=FACE_OUTER_BOUND('',#95,.T.);
#75=FACE_OUTER_BOUND('',#97,.T.);
#76=EDGE_LOOP('',(#183,#184,#185,#186,#187));
#77=EDGE_LOOP('',(#188,#189,#190,#191,#192,#193));
#78=EDGE_LOOP('',(#194));
#79=EDGE_LOOP('',(#195,#196));
#80=EDGE_LOOP('',(#197,#198,#199,#200,#201));
#81=EDGE_LOOP('',(#202));
#82=EDGE_LOOP('',(#203));
#83=EDGE_LOOP('',(#204,#205,#206,#207));
#84=EDGE_LOOP('',(#208));
#85=EDGE_LOOP('',(#209));
#86=EDGE_LOOP('',(#210,#211,#212,#213,#214));
#87=EDGE_LOOP('',(#215,#216,#217,#218));
#88=EDGE_LOOP('',(#219,#220,#221,#222));
#89=EDGE_LOOP('',(#223));
#90=EDGE_LOOP('',(#224));
#91=EDGE_LOOP('',(#225));
#92=EDGE_LOOP('',(#226));
#93=EDGE_LOOP('',(#227,#228,#229,#230));
#94=EDGE_LOOP('',(#231,#232,#233,#234));
#95=EDGE_LOOP('',(#235));
#96=EDGE_LOOP('',(#236));
#97=EDGE_LOOP('',(#237));
#98=EDGE_LOOP('',(#238));
#99=LINE('',#488,#108);
#100=LINE('',#495,#109);
#101=LINE('',#504,#110);
#102=LINE('',#510,#111);
#103=LINE('',#516,#112);
#104=LINE('',#522,#113);
#105=LINE('',#528,#114);
#106=LINE('',#537,#115);
#107=LINE('',#543,#116);
#108=VECTOR('',#397,19.75);
#109=VECTOR('',#406,20.);
#110=VECTOR('',#417,19.95);
#111=VECTOR('',#424,17.);
#112=VECTOR('',#433,2.1);
#113=VECTOR('',#440,5.25);
#114=VECTOR('',#447,16.);
#115=VECTOR('',#460,16.);
#116=VECTOR('',#467,17.);
#117=CIRCLE('',#348,20.);
#118=CIRCLE('',#349,20.);
#119=CIRCLE('',#350,19.5);
#120=CIRCLE('',#352,20.);
#121=CIRCLE('',#353,20.);
#122=CIRCLE('',#355,2.1);
#123=CIRCLE('',#356,2.1);
#124=CIRCLE('',#358,19.9);
#125=CIRCLE('',#360,17.);
#126=CIRCLE('',#362,17.);
#127=CIRCLE('',#364,2.1);
#128=CIRCLE('',#368,5.25);
#129=CIRCLE('',#369,5.25);
#130=CIRCLE('',#371,16.);
#131=CIRCLE('',#372,16.);
#132=CIRCLE('',#377,16.);
#133=CIRCLE('',#378,16.);
#134=CIRCLE('',#380,17.);
#135=CIRCLE('',#381,17.);
#136=VERTEX_POINT('',#483);
#137=VERTEX_POINT('',#484);
#138=VERTEX_POINT('',#487);
#139=VERTEX_POINT('',#491);
#140=VERTEX_POINT('',#492);
#141=VERTEX_POINT('',#497);
#142=VERTEX_POINT('',#498);
#143=VERTEX_POINT('',#502);
#144=VERTEX_POINT('',#506);
#145=VERTEX_POINT('',#509);
#146=VERTEX_POINT('',#513);
#147=VERTEX_POINT('',#519);
#148=VERTEX_POINT('',#521);
#149=VERTEX_POINT('',#525);
#150=VERTEX_POINT('',#527);
#151=VERTEX_POINT('',#534);
#152=VERTEX_POINT('',#536);
#153=VERTEX_POINT('',#540);
#154=VERTEX_POINT('',#542);
#155=EDGE_CURVE('',#136,#137,#117,.T.);
#156=EDGE_CURVE('',#137,#136,#118,.T.);
#157=EDGE_CURVE('',#136,#138,#99,.T.);
#158=EDGE_CURVE('',#138,#138,#119,.T.);
#159=EDGE_CURVE('',#139,#140,#120,.T.);
#160=EDGE_CURVE('',#140,#139,#121,.T.);
#161=EDGE_CURVE('',#140,#137,#100,.T.);
#162=EDGE_CURVE('',#141,#142,#122,.T.);
#163=EDGE_CURVE('',#142,#141,#123,.T.);
#164=EDGE_CURVE('',#143,#143,#124,.T.);
#165=EDGE_CURVE('',#143,#139,#101,.T.);
#166=EDGE_CURVE('',#144,#144,#125,.T.);
#167=EDGE_CURVE('',#144,#145,#102,.T.);
#168=EDGE_CURVE('',#145,#145,#126,.T.);
#169=EDGE_CURVE('',#146,#146,#127,.T.);
#170=EDGE_CURVE('',#142,#146,#103,.T.);
#171=EDGE_CURVE('',#147,#147,#128,.T.);
#172=EDGE_CURVE('',#147,#148,#104,.T.);
#173=EDGE_CURVE('',#148,#148,#129,.T.);
#174=EDGE_CURVE('',#149,#149,#130,.T.);
#175=EDGE_CURVE('',#149,#150,#105,.T.);
#176=EDGE_CURVE('',#150,#150,#131,.T.);
#177=EDGE_CURVE('',#151,#151,#132,.T.);
#178=EDGE_CURVE('',#151,#152,#106,.T.);
#179=EDGE_CURVE('',#152,#152,#133,.T.);
#180=EDGE_CURVE('',#153,#153,#134,.T.);
#181=EDGE_CURVE('',#153,#154,#107,.T.);
#182=EDGE_CURVE('',#154,#154,#135,.T.);
#183=ORIENTED_EDGE('',*,*,#155,.T.);
#184=ORIENTED_EDGE('',*,*,#156,.T.);
#185=ORIENTED_EDGE('',*,*,#157,.T.);
#186=ORIENTED_EDGE('',*,*,#158,.T.);
#187=ORIENTED_EDGE('',*,*,#157,.F.);
#188=ORIENTED_EDGE('',*,*,#159,.F.);
#189=ORIENTED_EDGE('',*,*,#160,.F.);
#190=ORIENTED_EDGE('',*,*,#161,.T.);
#191=ORIENTED_EDGE('',*,*,#155,.F.);
#192=ORIENTED_EDGE('',*,*,#156,.F.);
#193=ORIENTED_EDGE('',*,*,#161,.F.);
#194=ORIENTED_EDGE('',*,*,#158,.F.);
#195=ORIENTED_EDGE('',*,*,#162,.T.);
#196=ORIENTED_EDGE('',*,*,#163,.T.);
#197=ORIENTED_EDGE('',*,*,#164,.T.);
#198=ORIENTED_EDGE('',*,*,#165,.T.);
#199=ORIENTED_EDGE('',*,*,#159,.T.);
#200=ORIENTED_EDGE('',*,*,#160,.T.);
#201=ORIENTED_EDGE('',*,*,#165,.F.);
#202=ORIENTED_EDGE('',*,*,#164,.F.);
#203=ORIENTED_EDGE('',*,*,#166,.T.);
#204=ORIENTED_EDGE('',*,*,#166,.F.);
#205=ORIENTED_EDGE('',*,*,#167,.T.);
#206=ORIENTED_EDGE('',*,*,#168,.T.);
#207=ORIENTED_EDGE('',*,*,#167,.F.);
#208=ORIENTED_EDGE('',*,*,#168,.F.);
#209=ORIENTED_EDGE('',*,*,#169,.F.);
#210=ORIENTED_EDGE('',*,*,#162,.F.);
#211=ORIENTED_EDGE('',*,*,#163,.F.);
#212=ORIENTED_EDGE('',*,*,#170,.T.);
#213=ORIENTED_EDGE('',*,*,#169,.T.);
#214=ORIENTED_EDGE('',*,*,#170,.F.);
#215=ORIENTED_EDGE('',*,*,#171,.F.);
#216=ORIENTED_EDGE('',*,*,#172,.T.);
#217=ORIENTED_EDGE('',*,*,#173,.F.);
#218=ORIENTED_EDGE('',*,*,#172,.F.);
#219=ORIENTED_EDGE('',*,*,#174,.F.);
#220=ORIENTED_EDGE('',*,*,#175,.T.);
#221=ORIENTED_EDGE('',*,*,#176,.F.);
#222=ORIENTED_EDGE('',*,*,#175,.F.);
#223=ORIENTED_EDGE('',*,*,#176,.T.);
#224=ORIENTED_EDGE('',*,*,#171,.T.);
#225=ORIENTED_EDGE('',*,*,#174,.T.);
#226=ORIENTED_EDGE('',*,*,#173,.T.);
#227=ORIENTED_EDGE('',*,*,#177,.F.);
#228=ORIENTED_EDGE('',*,*,#178,.T.);
#229=ORIENTED_EDGE('',*,*,#179,.F.);
#230=ORIENTED_EDGE('',*,*,#178,.F.);
#231=ORIENTED_EDGE('',*,*,#180,.F.);
#232=ORIENTED_EDGE('',*,*,#181,.T.);
#233=ORIENTED_EDGE('',*,*,#182,.F.);
#234=ORIENTED_EDGE('',*,*,#181,.F.);
#235=ORIENTED_EDGE('',*,*,#182,.T.);
#236=ORIENTED_EDGE('',*,*,#177,.T.);
#237=ORIENTED_EDGE('',*,*,#180,.T.);
#238=ORIENTED_EDGE('',*,*,#179,.T.);
#239=CONICAL_SURFACE('',#347,19.75,0.785398163397448);
#240=CONICAL_SURFACE('',#357,19.95,0.785398163397448);
#241=ADVANCED_FACE('',(#60),#239,.T.);
#242=ADVANCED_FACE('',(#61),#53,.T.);
#243=ADVANCED_FACE('',(#62,#39),#46,.T.);
#244=ADVANCED_FACE('',(#63),#240,.T.);
#245=ADVANCED_FACE('',(#64,#40),#47,.T.);
#246=ADVANCED_FACE('',(#65),#54,.F.);
#247=ADVANCED_FACE('',(#66,#41),#48,.F.);
#248=ADVANCED_FACE('',(#67),#55,.F.);
#249=ADVANCED_FACE('',(#68),#56,.F.);
#250=ADVANCED_FACE('',(#69),#57,.T.);
#251=ADVANCED_FACE('',(#70,#42),#49,.F.);
#252=ADVANCED_FACE('',(#71,#43),#50,.T.);
#253=ADVANCED_FACE('',(#72),#58,.F.);
#254=ADVANCED_FACE('',(#73),#59,.T.);
#255=ADVANCED_FACE('',(#74,#44),#51,.F.);
#256=ADVANCED_FACE('',(#75,#45),#52,.T.);
#257=CLOSED_SHELL('',(#241,#242,#243,#244,#245,#246,#247,#248));
#258=CLOSED_SHELL('',(#249,#250,#251,#252));
#259=CLOSED_SHELL('',(#253,#254,#255,#256));
#260=DERIVED_UNIT_ELEMENT(#266,1.);
#261=DERIVED_UNIT_ELEMENT(#561,3.);
#262=DERIVED_UNIT_ELEMENT(#266,1.);
#263=DERIVED_UNIT_ELEMENT(#561,3.);
#264=DERIVED_UNIT_ELEMENT(#266,1.);
#265=DERIVED_UNIT_ELEMENT(#561,3.);
#266=(
MASS_UNIT()
NAMED_UNIT(*)
SI_UNIT($,.GRAM.)
);
#267=DERIVED_UNIT((#260,#261));
#268=DERIVED_UNIT((#262,#263));
#269=DERIVED_UNIT((#264,#265));
#270=MEASURE_REPRESENTATION_ITEM('density measure',
POSITIVE_RATIO_MEASURE(7.85),#267);
#271=MEASURE_REPRESENTATION_ITEM('density measure',
POSITIVE_RATIO_MEASURE(7.85),#268);
#272=MEASURE_REPRESENTATION_ITEM('density measure',
POSITIVE_RATIO_MEASURE(1.),#269);
#273=PROPERTY_DEFINITION_REPRESENTATION(#288,#279);
#274=PROPERTY_DEFINITION_REPRESENTATION(#289,#280);
#275=PROPERTY_DEFINITION_REPRESENTATION(#290,#281);
#276=PROPERTY_DEFINITION_REPRESENTATION(#291,#282);
#277=PROPERTY_DEFINITION_REPRESENTATION(#292,#283);
#278=PROPERTY_DEFINITION_REPRESENTATION(#293,#284);
#279=REPRESENTATION('material name',(#285),#556);
#280=REPRESENTATION('density',(#270),#556);
#281=REPRESENTATION('material name',(#286),#557);
#282=REPRESENTATION('density',(#271),#557);
#283=REPRESENTATION('material name',(#287),#558);
#284=REPRESENTATION('density',(#272),#558);
#285=DESCRIPTIVE_REPRESENTATION_ITEM('Steel, Carbon','Steel, Carbon');
#286=DESCRIPTIVE_REPRESENTATION_ITEM('Steel, Carbon','Steel, Carbon');
#287=DESCRIPTIVE_REPRESENTATION_ITEM('PE','PE');
#288=PROPERTY_DEFINITION('material property','material name',#581);
#289=PROPERTY_DEFINITION('material property','density of part',#581);
#290=PROPERTY_DEFINITION('material property','material name',#582);
#291=PROPERTY_DEFINITION('material property','density of part',#582);
#292=PROPERTY_DEFINITION('material property','material name',#583);
#293=PROPERTY_DEFINITION('material property','density of part',#583);
#294=PRESENTATION_STYLE_ASSIGNMENT((#297));
#295=PRESENTATION_STYLE_ASSIGNMENT((#298));
#296=PRESENTATION_STYLE_ASSIGNMENT((#299));
#297=SURFACE_STYLE_USAGE(.BOTH.,#306);
#298=SURFACE_STYLE_USAGE(.BOTH.,#307);
#299=SURFACE_STYLE_USAGE(.BOTH.,#308);
#300=SURFACE_STYLE_RENDERING_WITH_PROPERTIES($,#318,(#303));
#301=SURFACE_STYLE_RENDERING_WITH_PROPERTIES($,#319,(#304));
#302=SURFACE_STYLE_RENDERING_WITH_PROPERTIES($,#320,(#305));
#303=SURFACE_STYLE_TRANSPARENT(0.);
#304=SURFACE_STYLE_TRANSPARENT(0.);
#305=SURFACE_STYLE_TRANSPARENT(0.);
#306=SURFACE_SIDE_STYLE('',(#309,#300));
#307=SURFACE_SIDE_STYLE('',(#310,#301));
#308=SURFACE_SIDE_STYLE('',(#311,#302));
#309=SURFACE_STYLE_FILL_AREA(#312);
#310=SURFACE_STYLE_FILL_AREA(#313);
#311=SURFACE_STYLE_FILL_AREA(#314);
#312=FILL_AREA_STYLE('',(#315));
#313=FILL_AREA_STYLE('',(#316));
#314=FILL_AREA_STYLE('',(#317));
#315=FILL_AREA_STYLE_COLOUR('',#318);
#316=FILL_AREA_STYLE_COLOUR('',#319);
#317=FILL_AREA_STYLE_COLOUR('',#320);
#318=COLOUR_RGB('',0.745098039215686,0.737254901960784,0.729411764705882);
#319=COLOUR_RGB('',0.501960784313725,1.,0.501960784313725);
#320=COLOUR_RGB('',0.,0.,0.);
#321=DATE_TIME_ROLE('creation_date');
#322=DATE_TIME_ROLE('creation_date');
#323=DATE_TIME_ROLE('creation_date');
#324=DATE_TIME_ROLE('creation_date');
#325=APPLIED_DATE_AND_TIME_ASSIGNMENT(#329,#321,(#580));
#326=APPLIED_DATE_AND_TIME_ASSIGNMENT(#330,#322,(#581));
#327=APPLIED_DATE_AND_TIME_ASSIGNMENT(#331,#323,(#582));
#328=APPLIED_DATE_AND_TIME_ASSIGNMENT(#332,#324,(#583));
#329=DATE_AND_TIME(#333,#337);
#330=DATE_AND_TIME(#334,#338);
#331=DATE_AND_TIME(#335,#339);
#332=DATE_AND_TIME(#336,#340);
#333=CALENDAR_DATE(2019,18,8);
#334=CALENDAR_DATE(2019,18,8);
#335=CALENDAR_DATE(2019,18,8);
#336=CALENDAR_DATE(2019,18,8);
#337=LOCAL_TIME(22,0,0.,#341);
#338=LOCAL_TIME(22,0,0.,#342);
#339=LOCAL_TIME(22,0,0.,#343);
#340=LOCAL_TIME(22,0,0.,#344);
#341=COORDINATED_UNIVERSAL_TIME_OFFSET(0,0,.BEHIND.);
#342=COORDINATED_UNIVERSAL_TIME_OFFSET(0,0,.BEHIND.);
#343=COORDINATED_UNIVERSAL_TIME_OFFSET(0,0,.BEHIND.);
#344=COORDINATED_UNIVERSAL_TIME_OFFSET(0,0,.BEHIND.);
#345=AXIS2_PLACEMENT_3D('placement',#480,#387,#388);
#346=AXIS2_PLACEMENT_3D('placement',#481,#389,#390);
#347=AXIS2_PLACEMENT_3D('',#482,#391,#392);
#348=AXIS2_PLACEMENT_3D('',#485,#393,#394);
#349=AXIS2_PLACEMENT_3D('',#486,#395,#396);
#350=AXIS2_PLACEMENT_3D('',#489,#398,#399);
#351=AXIS2_PLACEMENT_3D('',#490,#400,#401);
#352=AXIS2_PLACEMENT_3D('',#493,#402,#403);
#353=AXIS2_PLACEMENT_3D('',#494,#404,#405);
#354=AXIS2_PLACEMENT_3D('',#496,#407,#408);
#355=AXIS2_PLACEMENT_3D('',#499,#409,#410);
#356=AXIS2_PLACEMENT_3D('',#500,#411,#412);
#357=AXIS2_PLACEMENT_3D('',#501,#413,#414);
#358=AXIS2_PLACEMENT_3D('',#503,#415,#416);
#359=AXIS2_PLACEMENT_3D('',#505,#418,#419);
#360=AXIS2_PLACEMENT_3D('',#507,#420,#421);
#361=AXIS2_PLACEMENT_3D('',#508,#422,#423);
#362=AXIS2_PLACEMENT_3D('',#511,#425,#426);
#363=AXIS2_PLACEMENT_3D('',#512,#427,#428);
#364=AXIS2_PLACEMENT_3D('',#514,#429,#430);
#365=AXIS2_PLACEMENT_3D('',#515,#431,#432);
#366=AXIS2_PLACEMENT_3D('placement',#517,#434,#435);
#367=AXIS2_PLACEMENT_3D('',#518,#436,#437);
#368=AXIS2_PLACEMENT_3D('',#520,#438,#439);
#369=AXIS2_PLACEMENT_3D('',#523,#441,#442);
#370=AXIS2_PLACEMENT_3D('',#524,#443,#444);
#371=AXIS2_PLACEMENT_3D('',#526,#445,#446);
#372=AXIS2_PLACEMENT_3D('',#529,#448,#449);
#373=AXIS2_PLACEMENT_3D('',#530,#450,#451);
#374=AXIS2_PLACEMENT_3D('',#531,#452,#453);
#375=AXIS2_PLACEMENT_3D('placement',#532,#454,#455);
#376=AXIS2_PLACEMENT_3D('',#533,#456,#457);
#377=AXIS2_PLACEMENT_3D('',#535,#458,#459);
#378=AXIS2_PLACEMENT_3D('',#538,#461,#462);
#379=AXIS2_PLACEMENT_3D('',#539,#463,#464);
#380=AXIS2_PLACEMENT_3D('',#541,#465,#466);
#381=AXIS2_PLACEMENT_3D('',#544,#468,#469);
#382=AXIS2_PLACEMENT_3D('',#545,#470,#471);
#383=AXIS2_PLACEMENT_3D('',#546,#472,#473);
#384=AXIS2_PLACEMENT_3D('',#547,#474,#475);
#385=AXIS2_PLACEMENT_3D('',#548,#476,#477);
#386=AXIS2_PLACEMENT_3D('',#549,#478,#479);
#387=DIRECTION('axis',(0.,0.,1.));
#388=DIRECTION('refdir',(1.,0.,0.));
#389=DIRECTION('axis',(0.,0.,1.));
#390=DIRECTION('refdir',(1.,0.,0.));
#391=DIRECTION('center_axis',(0.,-1.,0.));
#392=DIRECTION('ref_axis',(-1.,0.,0.));
#393=DIRECTION('center_axis',(0.,1.,0.));
#394=DIRECTION('ref_axis',(-1.,0.,0.));
#395=DIRECTION('center_axis',(0.,1.,0.));
#396=DIRECTION('ref_axis',(-1.,0.,0.));
#397=DIRECTION('',(-0.707106781186547,0.707106781186547,-8.65956056235493E-17));
#398=DIRECTION('center_axis',(0.,-1.,0.));
#399=DIRECTION('ref_axis',(-1.,0.,0.));
#400=DIRECTION('center_axis',(0.,-1.,0.));
#401=DIRECTION('ref_axis',(1.,0.,0.));
#402=DIRECTION('center_axis',(0.,-1.,0.));
#403=DIRECTION('ref_axis',(-1.,0.,0.));
#404=DIRECTION('center_axis',(0.,-1.,0.));
#405=DIRECTION('ref_axis',(-1.,0.,0.));
#406=DIRECTION('',(0.,1.,0.));
#407=DIRECTION('center_axis',(0.,1.,0.));
#408=DIRECTION('ref_axis',(0.,0.,1.));
#409=DIRECTION('center_axis',(0.,-1.,0.));
#410=DIRECTION('ref_axis',(1.,0.,0.));
#411=DIRECTION('center_axis',(0.,-1.,0.));
#412=DIRECTION('ref_axis',(1.,0.,0.));
#413=DIRECTION('center_axis',(0.,1.,0.));
#414=DIRECTION('ref_axis',(-1.,0.,0.));
#415=DIRECTION('center_axis',(0.,1.,0.));
#416=DIRECTION('ref_axis',(-1.,0.,0.));
#417=DIRECTION('',(0.707106781186548,0.707106781186548,8.65956056235493E-17));
#418=DIRECTION('center_axis',(0.,-1.,0.));
#419=DIRECTION('ref_axis',(0.,0.,-1.));
#420=DIRECTION('center_axis',(0.,1.,0.));
#421=DIRECTION('ref_axis',(-1.,0.,0.));
#422=DIRECTION('center_axis',(0.,1.,0.));
#423=DIRECTION('ref_axis',(-1.,0.,0.));
#424=DIRECTION('',(0.,1.,0.));
#425=DIRECTION('center_axis',(0.,1.,0.));
#426=DIRECTION('ref_axis',(-1.,0.,0.));
#427=DIRECTION('center_axis',(0.,1.,0.));
#428=DIRECTION('ref_axis',(0.,0.,1.));
#429=DIRECTION('center_axis',(0.,-1.,0.));
#430=DIRECTION('ref_axis',(1.,0.,0.));
#431=DIRECTION('center_axis',(0.,1.,0.));
#432=DIRECTION('ref_axis',(1.,0.,0.));
#433=DIRECTION('',(0.,-1.,0.));
#434=DIRECTION('axis',(0.,0.,1.));
#435=DIRECTION('refdir',(1.,0.,0.));
#436=DIRECTION('center_axis',(0.,0.,1.));
#437=DIRECTION('ref_axis',(-1.,0.,0.));
#438=DIRECTION('center_axis',(0.,0.,1.));
#439=DIRECTION('ref_axis',(-1.,0.,0.));
#440=DIRECTION('',(0.,0.,1.));
#441=DIRECTION('center_axis',(0.,0.,-1.));
#442=DIRECTION('ref_axis',(-1.,0.,0.));
#443=DIRECTION('center_axis',(0.,0.,1.));
#444=DIRECTION('ref_axis',(-1.,0.,0.));
#445=DIRECTION('center_axis',(0.,0.,1.));
#446=DIRECTION('ref_axis',(-1.,0.,0.));
#447=DIRECTION('',(0.,0.,-1.));
#448=DIRECTION('center_axis',(0.,0.,-1.));
#449=DIRECTION('ref_axis',(-1.,0.,0.));
#450=DIRECTION('center_axis',(0.,0.,1.));
#451=DIRECTION('ref_axis',(1.,0.,0.));
#452=DIRECTION('center_axis',(0.,0.,1.));
#453=DIRECTION('ref_axis',(1.,0.,0.));
#454=DIRECTION('axis',(0.,0.,1.));
#455=DIRECTION('refdir',(1.,0.,0.));
#456=DIRECTION('center_axis',(0.,1.,0.));
#457=DIRECTION('ref_axis',(1.,0.,0.));
#458=DIRECTION('center_axis',(0.,1.,0.));
#459=DIRECTION('ref_axis',(1.,0.,0.));
#460=DIRECTION('',(0.,1.,0.));
#461=DIRECTION('center_axis',(0.,-1.,0.));
#462=DIRECTION('ref_axis',(1.,0.,0.));
#463=DIRECTION('center_axis',(0.,1.,0.));
#464=DIRECTION('ref_axis',(1.,0.,0.));
#465=DIRECTION('center_axis',(0.,1.,0.));
#466=DIRECTION('ref_axis',(1.,0.,0.));
#467=DIRECTION('',(0.,-1.,0.));
#468=DIRECTION('center_axis',(0.,-1.,0.));
#469=DIRECTION('ref_axis',(1.,0.,0.));
#470=DIRECTION('center_axis',(0.,1.,0.));
#471=DIRECTION('ref_axis',(0.,0.,1.));
#472=DIRECTION('center_axis',(0.,1.,0.));
#473=DIRECTION('ref_axis',(0.,0.,1.));
#474=DIRECTION('',(0.,0.,1.));
#475=DIRECTION('',(1.,0.,0.));
#476=DIRECTION('',(0.,-1.,0.));
#477=DIRECTION('',(0.789525124074199,0.,0.61371824028264));
#478=DIRECTION('',(0.929095139924804,0.,0.369840804898688));
#479=DIRECTION('',(0.369840804898688,0.,-0.929095139924804));
#480=CARTESIAN_POINT('',(0.,0.,0.));
#481=CARTESIAN_POINT('',(0.,0.,0.));
#482=CARTESIAN_POINT('Origin',(0.,7.75,0.));
#483=CARTESIAN_POINT('',(20.,7.5,-2.44929359829471E-15));
#484=CARTESIAN_POINT('',(-20.,7.5,-2.44929359829471E-15));
#485=CARTESIAN_POINT('Origin',(0.,7.5,0.));
#486=CARTESIAN_POINT('Origin',(0.,7.5,0.));
#487=CARTESIAN_POINT('',(19.5,8.00000000000001,2.38806125833734E-15));
#488=CARTESIAN_POINT('',(19.75,7.75,2.41867742831602E-15));
#489=CARTESIAN_POINT('Origin',(0.,8.00000000000001,0.));
#490=CARTESIAN_POINT('Origin',(0.,4.,0.));
#491=CARTESIAN_POINT('',(20.,0.1,2.44929359829471E-15));
#492=CARTESIAN_POINT('',(-20.,0.1,-2.44929359829471E-15));
#493=CARTESIAN_POINT('Origin',(0.,0.1,0.));
#494=CARTESIAN_POINT('Origin',(0.,0.1,0.));
#495=CARTESIAN_POINT('',(-20.,4.,-2.44929359829471E-15));
#496=CARTESIAN_POINT('Origin',(20.,8.00000000000001,0.));
#497=CARTESIAN_POINT('',(2.1,8.00000000000001,0.));
#498=CARTESIAN_POINT('',(-2.1,8.00000000000001,2.57175827820944E-16));
#499=CARTESIAN_POINT('Origin',(0.,8.00000000000001,0.));
#500=CARTESIAN_POINT('Origin',(0.,8.00000000000001,0.));
#501=CARTESIAN_POINT('Origin',(0.,0.05,0.));
#502=CARTESIAN_POINT('',(19.9,0.,-2.43704713030323E-15));
#503=CARTESIAN_POINT('Origin',(0.,0.,0.));
#504=CARTESIAN_POINT('',(19.95,0.05,2.44317036429897E-15));
#505=CARTESIAN_POINT('Origin',(0.,0.,0.));
#506=CARTESIAN_POINT('',(17.,0.,2.0818995585505E-15));
#507=CARTESIAN_POINT('Origin',(0.,0.,0.));
#508=CARTESIAN_POINT('Origin',(0.,0.,0.));
#509=CARTESIAN_POINT('',(17.,4.6,2.0818995585505E-15));
#510=CARTESIAN_POINT('',(17.,0.,-2.0818995585505E-15));
#511=CARTESIAN_POINT('Origin',(0.,4.6,0.));
#512=CARTESIAN_POINT('Origin',(-1.91501794301671E-15,4.6,4.35381578284375E-16));
#513=CARTESIAN_POINT('',(-2.1,4.6,-2.57175827820944E-16));
#514=CARTESIAN_POINT('Origin',(0.,4.6,0.));
#515=CARTESIAN_POINT('Origin',(0.,-49.1314274283428,0.));
#516=CARTESIAN_POINT('',(-2.1,-49.1314274283428,2.57175827820944E-16));
#517=CARTESIAN_POINT('',(0.,0.,0.));
#518=CARTESIAN_POINT('Origin',(0.,0.,0.));
#519=CARTESIAN_POINT('',(5.25,6.42939569552361E-16,0.));
#520=CARTESIAN_POINT('Origin',(0.,0.,0.));
#521=CARTESIAN_POINT('',(5.25,6.42939569552361E-16,4.6));
#522=CARTESIAN_POINT('',(5.25,6.42939569552361E-16,0.));
#523=CARTESIAN_POINT('Origin',(0.,0.,4.6));
#524=CARTESIAN_POINT('Origin',(0.,0.,0.));
#525=CARTESIAN_POINT('',(16.,1.95943487863577E-15,4.6));
#526=CARTESIAN_POINT('Origin',(0.,0.,4.6));
#527=CARTESIAN_POINT('',(16.,1.95943487863577E-15,0.));
#528=CARTESIAN_POINT('',(16.,1.95943487863577E-15,0.));
#529=CARTESIAN_POINT('Origin',(0.,0.,0.));
#530=CARTESIAN_POINT('Origin',(-1.55106502066776E-15,-2.31296463463574E-16,
0.));
#531=CARTESIAN_POINT('Origin',(-1.55106502066776E-15,-2.31296463463574E-16,
4.6));
#532=CARTESIAN_POINT('',(0.,0.,0.));
#533=CARTESIAN_POINT('Origin',(0.,0.,0.));
#534=CARTESIAN_POINT('',(-16.,0.,1.95943487863577E-15));
#535=CARTESIAN_POINT('Origin',(0.,0.,0.));
#536=CARTESIAN_POINT('',(-16.,4.6,1.95943487863577E-15));
#537=CARTESIAN_POINT('',(-16.,0.,1.95943487863577E-15));
#538=CARTESIAN_POINT('Origin',(0.,4.6,0.));
#539=CARTESIAN_POINT('Origin',(0.,0.,0.));
#540=CARTESIAN_POINT('',(-17.,4.6,2.0818995585505E-15));
#541=CARTESIAN_POINT('Origin',(0.,4.6,0.));
#542=CARTESIAN_POINT('',(-17.,0.,2.0818995585505E-15));
#543=CARTESIAN_POINT('',(-17.,0.,2.0818995585505E-15));
#544=CARTESIAN_POINT('Origin',(0.,0.,0.));
#545=CARTESIAN_POINT('Origin',(1.91501794301671E-15,0.,4.35381578284375E-16));
#546=CARTESIAN_POINT('Origin',(1.91501794301671E-15,4.6,4.35381578284375E-16));
#547=CARTESIAN_POINT('',(0.,0.,0.));
#548=CARTESIAN_POINT('',(0.,4.6,0.));
#549=CARTESIAN_POINT('',(0.,0.,0.));
#550=UNCERTAINTY_MEASURE_WITH_UNIT(LENGTH_MEASURE(0.01),#560,
'DISTANCE_ACCURACY_VALUE',
'Maximum model space distance between geometric entities at asserted c
onnectivities');
#551=UNCERTAINTY_MEASURE_WITH_UNIT(LENGTH_MEASURE(0.01),#560,
'DISTANCE_ACCURACY_VALUE',
'Maximum model space distance between geometric entities at asserted c
onnectivities');
#552=UNCERTAINTY_MEASURE_WITH_UNIT(LENGTH_MEASURE(0.01),#560,
'DISTANCE_ACCURACY_VALUE',
'Maximum model space distance between geometric entities at asserted c
onnectivities');
#553=UNCERTAINTY_MEASURE_WITH_UNIT(LENGTH_MEASURE(0.01),#560,
'DISTANCE_ACCURACY_VALUE',
'Maximum model space distance between geometric entities at asserted c
onnectivities');
#554=UNCERTAINTY_MEASURE_WITH_UNIT(LENGTH_MEASURE(0.01),#560,
'DISTANCE_ACCURACY_VALUE',
'Maximum model space distance between geometric entities at asserted c
onnectivities');
#555=(
GEOMETRIC_REPRESENTATION_CONTEXT(3)
GLOBAL_UNCERTAINTY_ASSIGNED_CONTEXT((#550))
GLOBAL_UNIT_ASSIGNED_CONTEXT((#560,#562,#563))
REPRESENTATION_CONTEXT('','3D')
);
#556=(
GEOMETRIC_REPRESENTATION_CONTEXT(3)
GLOBAL_UNCERTAINTY_ASSIGNED_CONTEXT((#551))
GLOBAL_UNIT_ASSIGNED_CONTEXT((#560,#562,#563))
REPRESENTATION_CONTEXT('','3D')
);
#557=(
GEOMETRIC_REPRESENTATION_CONTEXT(3)
GLOBAL_UNCERTAINTY_ASSIGNED_CONTEXT((#552))
GLOBAL_UNIT_ASSIGNED_CONTEXT((#560,#562,#563))
REPRESENTATION_CONTEXT('','3D')
);
#558=(
GEOMETRIC_REPRESENTATION_CONTEXT(3)
GLOBAL_UNCERTAINTY_ASSIGNED_CONTEXT((#553))
GLOBAL_UNIT_ASSIGNED_CONTEXT((#560,#562,#563))
REPRESENTATION_CONTEXT('','3D')
);
#559=(
GEOMETRIC_REPRESENTATION_CONTEXT(3)
GLOBAL_UNCERTAINTY_ASSIGNED_CONTEXT((#554))
GLOBAL_UNIT_ASSIGNED_CONTEXT((#560,#562,#563))
REPRESENTATION_CONTEXT('','3D')
);
#560=(
LENGTH_UNIT()
NAMED_UNIT(*)
SI_UNIT(.MILLI.,.METRE.)
);
#561=(
LENGTH_UNIT()
NAMED_UNIT(*)
SI_UNIT(.CENTI.,.METRE.)
);
#562=(
NAMED_UNIT(*)
PLANE_ANGLE_UNIT()
SI_UNIT($,.RADIAN.)
);
#563=(
NAMED_UNIT(*)
SI_UNIT($,.STERADIAN.)
SOLID_ANGLE_UNIT()
);
#564=SHAPE_DEFINITION_REPRESENTATION(#568,#575);
#565=SHAPE_DEFINITION_REPRESENTATION(#569,#576);
#566=SHAPE_DEFINITION_REPRESENTATION(#570,#577);
#567=SHAPE_DEFINITION_REPRESENTATION(#571,#578);
#568=PRODUCT_DEFINITION_SHAPE('',$,#580);
#569=PRODUCT_DEFINITION_SHAPE('',$,#581);
#570=PRODUCT_DEFINITION_SHAPE('',$,#582);
#571=PRODUCT_DEFINITION_SHAPE('',$,#583);
#572=PRODUCT_DEFINITION_SHAPE($,$,#20);
#573=PRODUCT_DEFINITION_SHAPE($,$,#21);
#574=PRODUCT_DEFINITION_SHAPE($,$,#22);
#575=SHAPE_REPRESENTATION('',(#345,#384,#385,#386),#555);
#576=SHAPE_REPRESENTATION('',(#346),#556);
#577=SHAPE_REPRESENTATION('',(#366),#557);
#578=SHAPE_REPRESENTATION('',(#375),#558);
#579=PRODUCT_DEFINITION_CONTEXT('part definition',#593,'design');
#580=PRODUCT_DEFINITION('GM17439','GM17439',#584,#579);
#581=PRODUCT_DEFINITION('E0120926','E0120926',#585,#579);
#582=PRODUCT_DEFINITION('E0120927','E0120927',#586,#579);
#583=PRODUCT_DEFINITION('E0120925','E0120925',#587,#579);
#584=PRODUCT_DEFINITION_FORMATION('-',$,#595);
#585=PRODUCT_DEFINITION_FORMATION('-',$,#596);
#586=PRODUCT_DEFINITION_FORMATION('-',$,#597);
#587=PRODUCT_DEFINITION_FORMATION('-',$,#598);
#588=PRODUCT_RELATED_PRODUCT_CATEGORY('GM17439','GM17439',(#595));
#589=PRODUCT_RELATED_PRODUCT_CATEGORY('E0120926','E0120926',(#596));
#590=PRODUCT_RELATED_PRODUCT_CATEGORY('E0120927','E0120927',(#597));
#591=PRODUCT_RELATED_PRODUCT_CATEGORY('E0120925','E0120925',(#598));
#592=APPLICATION_PROTOCOL_DEFINITION('international standard',
'automotive_design',2009,#593);
#593=APPLICATION_CONTEXT(
'Core Data for Automotive Mechanical Design Process');
#594=PRODUCT_CONTEXT('part definition',#593,'mechanical');
#595=PRODUCT('GM17439','GM17439',$,(#594));
#596=PRODUCT('E0120926','E0120926',$,(#594));
#597=PRODUCT('E0120927','E0120927',$,(#594));
#598=PRODUCT('E0120925','E0120925',$,(#594));
ENDSEC;
END-ISO-10303-21;
