ISO-10303-21;
HEADER;
/* Generated by software containing ST-Developer
 * from STEP Tools, Inc. (www.steptools.com) 
 */

FILE_DESCRIPTION(
/* description */ (''),
/* implementation_level */ '2;1');

FILE_NAME(
/* name */ 
'C:\\Workspace\\Documents\\Manufacturing\\33\\E\\Pot magnets\\GM17442\\
GM17442 -.stp',
/* time_stamp */ '2019-10-01T11:51:57+02:00',
/* author */ ('PV'),
/* organization */ (''),
/* preprocessor_version */ 'ST-DEVELOPER v17.2',
/* originating_system */ 'Autodesk Inventor 2019',
/* authorisation */ '');

FILE_SCHEMA (('AUTOMOTIVE_DESIGN { 1 0 10303 214 3 1 1 }'));
ENDSEC;

DATA;
#10=MECHANICAL_DESIGN_GEOMETRIC_PRESENTATION_REPRESENTATION('',(#29,#30,
#31,#32,#33,#34,#35),#541);
#11=ITEM_DEFINED_TRANSFORMATION($,$,#328,#366);
#12=ITEM_DEFINED_TRANSFORMATION($,$,#348,#367);
#13=ITEM_DEFINED_TRANSFORMATION($,$,#357,#368);
#14=(
REPRESENTATION_RELATIONSHIP($,$,#558,#557)
REPRESENTATION_RELATIONSHIP_WITH_TRANSFORMATION(#11)
SHAPE_REPRESENTATION_RELATIONSHIP()
);
#15=(
REPRESENTATION_RELATIONSHIP($,$,#559,#557)
REPRESENTATION_RELATIONSHIP_WITH_TRANSFORMATION(#12)
SHAPE_REPRESENTATION_RELATIONSHIP()
);
#16=(
REPRESENTATION_RELATIONSHIP($,$,#560,#557)
REPRESENTATION_RELATIONSHIP_WITH_TRANSFORMATION(#13)
SHAPE_REPRESENTATION_RELATIONSHIP()
);
#17=CONTEXT_DEPENDENT_SHAPE_REPRESENTATION(#14,#554);
#18=CONTEXT_DEPENDENT_SHAPE_REPRESENTATION(#15,#555);
#19=CONTEXT_DEPENDENT_SHAPE_REPRESENTATION(#16,#556);
#20=NEXT_ASSEMBLY_USAGE_OCCURRENCE('E0121008/- - OUTER HOUSING:1',
'E0121008/- - OUTER HOUSING:1','E0121008/- - OUTER HOUSING:1',#562,#563,
'E0121008/- - OUTER HOUSING:1');
#21=NEXT_ASSEMBLY_USAGE_OCCURRENCE('E0121010/- - MAGNET:1',
'E0121010/- - MAGNET:1','E0121010/- - MAGNET:1',#562,#564,
'E0121010/- - MAGNET:1');
#22=NEXT_ASSEMBLY_USAGE_OCCURRENCE('E0121009/- - GLUE:1',
'E0121009/- - GLUE:1','E0121009/- - GLUE:1',#562,#565,
'E0121009/- - GLUE:1');
#23=SHAPE_REPRESENTATION_RELATIONSHIP('SRR','None',#558,#26);
#24=SHAPE_REPRESENTATION_RELATIONSHIP('SRR','None',#559,#27);
#25=SHAPE_REPRESENTATION_RELATIONSHIP('SRR','None',#560,#28);
#26=ADVANCED_BREP_SHAPE_REPRESENTATION('',(#36),#538);
#27=ADVANCED_BREP_SHAPE_REPRESENTATION('',(#37),#539);
#28=ADVANCED_BREP_SHAPE_REPRESENTATION('',(#38),#540);
#29=STYLED_ITEM('',(#294),#36);
#30=STYLED_ITEM('',(#295),#249);
#31=STYLED_ITEM('',(#295),#250);
#32=STYLED_ITEM('',(#295),#251);
#33=STYLED_ITEM('',(#295),#252);
#34=STYLED_ITEM('',(#294),#37);
#35=STYLED_ITEM('',(#296),#38);
#36=MANIFOLD_SOLID_BREP('Solid2',#257);
#37=MANIFOLD_SOLID_BREP('Solid2',#258);
#38=MANIFOLD_SOLID_BREP('Solid2',#259);
#39=FACE_BOUND('',#79,.T.);
#40=FACE_BOUND('',#82,.T.);
#41=FACE_BOUND('',#85,.T.);
#42=FACE_BOUND('',#90,.T.);
#43=FACE_BOUND('',#92,.T.);
#44=FACE_BOUND('',#96,.T.);
#45=FACE_BOUND('',#98,.T.);
#46=PLANE('',#336);
#47=PLANE('',#341);
#48=PLANE('',#345);
#49=PLANE('',#355);
#50=PLANE('',#356);
#51=PLANE('',#364);
#52=PLANE('',#365);
#53=CYLINDRICAL_SURFACE('',#333,31.5);
#54=CYLINDRICAL_SURFACE('',#343,27.5);
#55=CYLINDRICAL_SURFACE('',#347,4.25);
#56=CYLINDRICAL_SURFACE('',#349,5.85);
#57=CYLINDRICAL_SURFACE('',#352,25.);
#58=CYLINDRICAL_SURFACE('',#358,25.);
#59=CYLINDRICAL_SURFACE('',#361,27.5);
#60=FACE_OUTER_BOUND('',#76,.T.);
#61=FACE_OUTER_BOUND('',#77,.T.);
#62=FACE_OUTER_BOUND('',#78,.T.);
#63=FACE_OUTER_BOUND('',#80,.T.);
#64=FACE_OUTER_BOUND('',#81,.T.);
#65=FACE_OUTER_BOUND('',#83,.T.);
#66=FACE_OUTER_BOUND('',#84,.T.);
#67=FACE_OUTER_BOUND('',#86,.T.);
#68=FACE_OUTER_BOUND('',#87,.T.);
#69=FACE_OUTER_BOUND('',#88,.T.);
#70=FACE_OUTER_BOUND('',#89,.T.);
#71=FACE_OUTER_BOUND('',#91,.T.);
#72=FACE_OUTER_BOUND('',#93,.T.);
#73=FACE_OUTER_BOUND('',#94,.T.);
#74=FACE_OUTER_BOUND('',#95,.T.);
#75=FACE_OUTER_BOUND('',#97,.T.);
#76=EDGE_LOOP('',(#183,#184,#185,#186,#187));
#77=EDGE_LOOP('',(#188,#189,#190,#191,#192,#193));
#78=EDGE_LOOP('',(#194));
#79=EDGE_LOOP('',(#195,#196));
#80=EDGE_LOOP('',(#197,#198,#199,#200,#201));
#81=EDGE_LOOP('',(#202));
#82=EDGE_LOOP('',(#203));
#83=EDGE_LOOP('',(#204,#205,#206,#207));
#84=EDGE_LOOP('',(#208));
#85=EDGE_LOOP('',(#209));
#86=EDGE_LOOP('',(#210,#211,#212,#213,#214));
#87=EDGE_LOOP('',(#215,#216,#217,#218));
#88=EDGE_LOOP('',(#219,#220,#221,#222));
#89=EDGE_LOOP('',(#223));
#90=EDGE_LOOP('',(#224));
#91=EDGE_LOOP('',(#225));
#92=EDGE_LOOP('',(#226));
#93=EDGE_LOOP('',(#227,#228,#229,#230));
#94=EDGE_LOOP('',(#231,#232,#233,#234));
#95=EDGE_LOOP('',(#235));
#96=EDGE_LOOP('',(#236));
#97=EDGE_LOOP('',(#237));
#98=EDGE_LOOP('',(#238));
#99=LINE('',#470,#108);
#100=LINE('',#477,#109);
#101=LINE('',#486,#110);
#102=LINE('',#492,#111);
#103=LINE('',#498,#112);
#104=LINE('',#504,#113);
#105=LINE('',#510,#114);
#106=LINE('',#519,#115);
#107=LINE('',#525,#116);
#108=VECTOR('',#379,31.25);
#109=VECTOR('',#388,31.5);
#110=VECTOR('',#399,31.45);
#111=VECTOR('',#406,27.5);
#112=VECTOR('',#415,4.25);
#113=VECTOR('',#422,5.85);
#114=VECTOR('',#429,25.);
#115=VECTOR('',#442,25.);
#116=VECTOR('',#449,27.5);
#117=CIRCLE('',#330,31.5);
#118=CIRCLE('',#331,31.5);
#119=CIRCLE('',#332,31.);
#120=CIRCLE('',#334,31.5);
#121=CIRCLE('',#335,31.5);
#122=CIRCLE('',#337,4.25);
#123=CIRCLE('',#338,4.25);
#124=CIRCLE('',#340,31.4);
#125=CIRCLE('',#342,27.5);
#126=CIRCLE('',#344,27.5);
#127=CIRCLE('',#346,4.25);
#128=CIRCLE('',#350,5.85);
#129=CIRCLE('',#351,5.85);
#130=CIRCLE('',#353,25.);
#131=CIRCLE('',#354,25.);
#132=CIRCLE('',#359,25.);
#133=CIRCLE('',#360,25.);
#134=CIRCLE('',#362,27.5);
#135=CIRCLE('',#363,27.5);
#136=VERTEX_POINT('',#465);
#137=VERTEX_POINT('',#466);
#138=VERTEX_POINT('',#469);
#139=VERTEX_POINT('',#473);
#140=VERTEX_POINT('',#474);
#141=VERTEX_POINT('',#479);
#142=VERTEX_POINT('',#480);
#143=VERTEX_POINT('',#484);
#144=VERTEX_POINT('',#488);
#145=VERTEX_POINT('',#491);
#146=VERTEX_POINT('',#495);
#147=VERTEX_POINT('',#501);
#148=VERTEX_POINT('',#503);
#149=VERTEX_POINT('',#507);
#150=VERTEX_POINT('',#509);
#151=VERTEX_POINT('',#516);
#152=VERTEX_POINT('',#518);
#153=VERTEX_POINT('',#522);
#154=VERTEX_POINT('',#524);
#155=EDGE_CURVE('',#136,#137,#117,.T.);
#156=EDGE_CURVE('',#137,#136,#118,.T.);
#157=EDGE_CURVE('',#136,#138,#99,.T.);
#158=EDGE_CURVE('',#138,#138,#119,.T.);
#159=EDGE_CURVE('',#139,#140,#120,.T.);
#160=EDGE_CURVE('',#140,#139,#121,.T.);
#161=EDGE_CURVE('',#140,#137,#100,.T.);
#162=EDGE_CURVE('',#141,#142,#122,.T.);
#163=EDGE_CURVE('',#142,#141,#123,.T.);
#164=EDGE_CURVE('',#143,#143,#124,.T.);
#165=EDGE_CURVE('',#143,#139,#101,.T.);
#166=EDGE_CURVE('',#144,#144,#125,.T.);
#167=EDGE_CURVE('',#144,#145,#102,.T.);
#168=EDGE_CURVE('',#145,#145,#126,.T.);
#169=EDGE_CURVE('',#146,#146,#127,.T.);
#170=EDGE_CURVE('',#142,#146,#103,.T.);
#171=EDGE_CURVE('',#147,#147,#128,.T.);
#172=EDGE_CURVE('',#147,#148,#104,.T.);
#173=EDGE_CURVE('',#148,#148,#129,.T.);
#174=EDGE_CURVE('',#149,#149,#130,.T.);
#175=EDGE_CURVE('',#149,#150,#105,.T.);
#176=EDGE_CURVE('',#150,#150,#131,.T.);
#177=EDGE_CURVE('',#151,#151,#132,.T.);
#178=EDGE_CURVE('',#151,#152,#106,.T.);
#179=EDGE_CURVE('',#152,#152,#133,.T.);
#180=EDGE_CURVE('',#153,#153,#134,.T.);
#181=EDGE_CURVE('',#153,#154,#107,.T.);
#182=EDGE_CURVE('',#154,#154,#135,.T.);
#183=ORIENTED_EDGE('',*,*,#155,.T.);
#184=ORIENTED_EDGE('',*,*,#156,.T.);
#185=ORIENTED_EDGE('',*,*,#157,.T.);
#186=ORIENTED_EDGE('',*,*,#158,.T.);
#187=ORIENTED_EDGE('',*,*,#157,.F.);
#188=ORIENTED_EDGE('',*,*,#159,.F.);
#189=ORIENTED_EDGE('',*,*,#160,.F.);
#190=ORIENTED_EDGE('',*,*,#161,.T.);
#191=ORIENTED_EDGE('',*,*,#155,.F.);
#192=ORIENTED_EDGE('',*,*,#156,.F.);
#193=ORIENTED_EDGE('',*,*,#161,.F.);
#194=ORIENTED_EDGE('',*,*,#158,.F.);
#195=ORIENTED_EDGE('',*,*,#162,.T.);
#196=ORIENTED_EDGE('',*,*,#163,.T.);
#197=ORIENTED_EDGE('',*,*,#164,.T.);
#198=ORIENTED_EDGE('',*,*,#165,.T.);
#199=ORIENTED_EDGE('',*,*,#159,.T.);
#200=ORIENTED_EDGE('',*,*,#160,.T.);
#201=ORIENTED_EDGE('',*,*,#165,.F.);
#202=ORIENTED_EDGE('',*,*,#164,.F.);
#203=ORIENTED_EDGE('',*,*,#166,.T.);
#204=ORIENTED_EDGE('',*,*,#166,.F.);
#205=ORIENTED_EDGE('',*,*,#167,.T.);
#206=ORIENTED_EDGE('',*,*,#168,.T.);
#207=ORIENTED_EDGE('',*,*,#167,.F.);
#208=ORIENTED_EDGE('',*,*,#168,.F.);
#209=ORIENTED_EDGE('',*,*,#169,.F.);
#210=ORIENTED_EDGE('',*,*,#162,.F.);
#211=ORIENTED_EDGE('',*,*,#163,.F.);
#212=ORIENTED_EDGE('',*,*,#170,.T.);
#213=ORIENTED_EDGE('',*,*,#169,.T.);
#214=ORIENTED_EDGE('',*,*,#170,.F.);
#215=ORIENTED_EDGE('',*,*,#171,.F.);
#216=ORIENTED_EDGE('',*,*,#172,.T.);
#217=ORIENTED_EDGE('',*,*,#173,.F.);
#218=ORIENTED_EDGE('',*,*,#172,.F.);
#219=ORIENTED_EDGE('',*,*,#174,.F.);
#220=ORIENTED_EDGE('',*,*,#175,.T.);
#221=ORIENTED_EDGE('',*,*,#176,.F.);
#222=ORIENTED_EDGE('',*,*,#175,.F.);
#223=ORIENTED_EDGE('',*,*,#176,.T.);
#224=ORIENTED_EDGE('',*,*,#171,.T.);
#225=ORIENTED_EDGE('',*,*,#174,.T.);
#226=ORIENTED_EDGE('',*,*,#173,.T.);
#227=ORIENTED_EDGE('',*,*,#177,.F.);
#228=ORIENTED_EDGE('',*,*,#178,.T.);
#229=ORIENTED_EDGE('',*,*,#179,.F.);
#230=ORIENTED_EDGE('',*,*,#178,.F.);
#231=ORIENTED_EDGE('',*,*,#180,.F.);
#232=ORIENTED_EDGE('',*,*,#181,.T.);
#233=ORIENTED_EDGE('',*,*,#182,.F.);
#234=ORIENTED_EDGE('',*,*,#181,.F.);
#235=ORIENTED_EDGE('',*,*,#182,.T.);
#236=ORIENTED_EDGE('',*,*,#177,.T.);
#237=ORIENTED_EDGE('',*,*,#180,.T.);
#238=ORIENTED_EDGE('',*,*,#179,.T.);
#239=CONICAL_SURFACE('',#329,31.25,0.785398163397446);
#240=CONICAL_SURFACE('',#339,31.45,0.785398163397437);
#241=ADVANCED_FACE('',(#60),#239,.T.);
#242=ADVANCED_FACE('',(#61),#53,.T.);
#243=ADVANCED_FACE('',(#62,#39),#46,.T.);
#244=ADVANCED_FACE('',(#63),#240,.T.);
#245=ADVANCED_FACE('',(#64,#40),#47,.T.);
#246=ADVANCED_FACE('',(#65),#54,.F.);
#247=ADVANCED_FACE('',(#66,#41),#48,.F.);
#248=ADVANCED_FACE('',(#67),#55,.F.);
#249=ADVANCED_FACE('',(#68),#56,.F.);
#250=ADVANCED_FACE('',(#69),#57,.T.);
#251=ADVANCED_FACE('',(#70,#42),#49,.F.);
#252=ADVANCED_FACE('',(#71,#43),#50,.T.);
#253=ADVANCED_FACE('',(#72),#58,.F.);
#254=ADVANCED_FACE('',(#73),#59,.T.);
#255=ADVANCED_FACE('',(#74,#44),#51,.F.);
#256=ADVANCED_FACE('',(#75,#45),#52,.T.);
#257=CLOSED_SHELL('',(#241,#242,#243,#244,#245,#246,#247,#248));
#258=CLOSED_SHELL('',(#249,#250,#251,#252));
#259=CLOSED_SHELL('',(#253,#254,#255,#256));
#260=DERIVED_UNIT_ELEMENT(#266,1.);
#261=DERIVED_UNIT_ELEMENT(#543,3.);
#262=DERIVED_UNIT_ELEMENT(#266,1.);
#263=DERIVED_UNIT_ELEMENT(#543,3.);
#264=DERIVED_UNIT_ELEMENT(#266,1.);
#265=DERIVED_UNIT_ELEMENT(#543,3.);
#266=(
MASS_UNIT()
NAMED_UNIT(*)
SI_UNIT($,.GRAM.)
);
#267=DERIVED_UNIT((#260,#261));
#268=DERIVED_UNIT((#262,#263));
#269=DERIVED_UNIT((#264,#265));
#270=MEASURE_REPRESENTATION_ITEM('density measure',
POSITIVE_RATIO_MEASURE(7.85),#267);
#271=MEASURE_REPRESENTATION_ITEM('density measure',
POSITIVE_RATIO_MEASURE(7.85),#268);
#272=MEASURE_REPRESENTATION_ITEM('density measure',
POSITIVE_RATIO_MEASURE(1.),#269);
#273=PROPERTY_DEFINITION_REPRESENTATION(#288,#279);
#274=PROPERTY_DEFINITION_REPRESENTATION(#289,#280);
#275=PROPERTY_DEFINITION_REPRESENTATION(#290,#281);
#276=PROPERTY_DEFINITION_REPRESENTATION(#291,#282);
#277=PROPERTY_DEFINITION_REPRESENTATION(#292,#283);
#278=PROPERTY_DEFINITION_REPRESENTATION(#293,#284);
#279=REPRESENTATION('material name',(#285),#538);
#280=REPRESENTATION('density',(#270),#538);
#281=REPRESENTATION('material name',(#286),#539);
#282=REPRESENTATION('density',(#271),#539);
#283=REPRESENTATION('material name',(#287),#540);
#284=REPRESENTATION('density',(#272),#540);
#285=DESCRIPTIVE_REPRESENTATION_ITEM('Steel, Carbon','Steel, Carbon');
#286=DESCRIPTIVE_REPRESENTATION_ITEM('Steel, Carbon','Steel, Carbon');
#287=DESCRIPTIVE_REPRESENTATION_ITEM('PE','PE');
#288=PROPERTY_DEFINITION('material property','material name',#563);
#289=PROPERTY_DEFINITION('material property','density of part',#563);
#290=PROPERTY_DEFINITION('material property','material name',#564);
#291=PROPERTY_DEFINITION('material property','density of part',#564);
#292=PROPERTY_DEFINITION('material property','material name',#565);
#293=PROPERTY_DEFINITION('material property','density of part',#565);
#294=PRESENTATION_STYLE_ASSIGNMENT((#297));
#295=PRESENTATION_STYLE_ASSIGNMENT((#298));
#296=PRESENTATION_STYLE_ASSIGNMENT((#299));
#297=SURFACE_STYLE_USAGE(.BOTH.,#306);
#298=SURFACE_STYLE_USAGE(.BOTH.,#307);
#299=SURFACE_STYLE_USAGE(.BOTH.,#308);
#300=SURFACE_STYLE_RENDERING_WITH_PROPERTIES($,#318,(#303));
#301=SURFACE_STYLE_RENDERING_WITH_PROPERTIES($,#319,(#304));
#302=SURFACE_STYLE_RENDERING_WITH_PROPERTIES($,#320,(#305));
#303=SURFACE_STYLE_TRANSPARENT(0.);
#304=SURFACE_STYLE_TRANSPARENT(0.);
#305=SURFACE_STYLE_TRANSPARENT(0.);
#306=SURFACE_SIDE_STYLE('',(#309,#300));
#307=SURFACE_SIDE_STYLE('',(#310,#301));
#308=SURFACE_SIDE_STYLE('',(#311,#302));
#309=SURFACE_STYLE_FILL_AREA(#312);
#310=SURFACE_STYLE_FILL_AREA(#313);
#311=SURFACE_STYLE_FILL_AREA(#314);
#312=FILL_AREA_STYLE('',(#315));
#313=FILL_AREA_STYLE('',(#316));
#314=FILL_AREA_STYLE('',(#317));
#315=FILL_AREA_STYLE_COLOUR('',#318);
#316=FILL_AREA_STYLE_COLOUR('',#319);
#317=FILL_AREA_STYLE_COLOUR('',#320);
#318=COLOUR_RGB('',0.745098039215686,0.737254901960784,0.729411764705882);
#319=COLOUR_RGB('',0.501960784313725,1.,0.501960784313725);
#320=COLOUR_RGB('',0.,0.,0.);
#321=DATE_TIME_ROLE('creation_date');
#322=APPLIED_DATE_AND_TIME_ASSIGNMENT(#323,#321,(#562));
#323=DATE_AND_TIME(#324,#325);
#324=CALENDAR_DATE(2019,20,8);
#325=LOCAL_TIME(22,0,0.,#326);
#326=COORDINATED_UNIVERSAL_TIME_OFFSET(0,0,.BEHIND.);
#327=AXIS2_PLACEMENT_3D('placement',#462,#369,#370);
#328=AXIS2_PLACEMENT_3D('placement',#463,#371,#372);
#329=AXIS2_PLACEMENT_3D('',#464,#373,#374);
#330=AXIS2_PLACEMENT_3D('',#467,#375,#376);
#331=AXIS2_PLACEMENT_3D('',#468,#377,#378);
#332=AXIS2_PLACEMENT_3D('',#471,#380,#381);
#333=AXIS2_PLACEMENT_3D('',#472,#382,#383);
#334=AXIS2_PLACEMENT_3D('',#475,#384,#385);
#335=AXIS2_PLACEMENT_3D('',#476,#386,#387);
#336=AXIS2_PLACEMENT_3D('',#478,#389,#390);
#337=AXIS2_PLACEMENT_3D('',#481,#391,#392);
#338=AXIS2_PLACEMENT_3D('',#482,#393,#394);
#339=AXIS2_PLACEMENT_3D('',#483,#395,#396);
#340=AXIS2_PLACEMENT_3D('',#485,#397,#398);
#341=AXIS2_PLACEMENT_3D('',#487,#400,#401);
#342=AXIS2_PLACEMENT_3D('',#489,#402,#403);
#343=AXIS2_PLACEMENT_3D('',#490,#404,#405);
#344=AXIS2_PLACEMENT_3D('',#493,#407,#408);
#345=AXIS2_PLACEMENT_3D('',#494,#409,#410);
#346=AXIS2_PLACEMENT_3D('',#496,#411,#412);
#347=AXIS2_PLACEMENT_3D('',#497,#413,#414);
#348=AXIS2_PLACEMENT_3D('placement',#499,#416,#417);
#349=AXIS2_PLACEMENT_3D('',#500,#418,#419);
#350=AXIS2_PLACEMENT_3D('',#502,#420,#421);
#351=AXIS2_PLACEMENT_3D('',#505,#423,#424);
#352=AXIS2_PLACEMENT_3D('',#506,#425,#426);
#353=AXIS2_PLACEMENT_3D('',#508,#427,#428);
#354=AXIS2_PLACEMENT_3D('',#511,#430,#431);
#355=AXIS2_PLACEMENT_3D('',#512,#432,#433);
#356=AXIS2_PLACEMENT_3D('',#513,#434,#435);
#357=AXIS2_PLACEMENT_3D('placement',#514,#436,#437);
#358=AXIS2_PLACEMENT_3D('',#515,#438,#439);
#359=AXIS2_PLACEMENT_3D('',#517,#440,#441);
#360=AXIS2_PLACEMENT_3D('',#520,#443,#444);
#361=AXIS2_PLACEMENT_3D('',#521,#445,#446);
#362=AXIS2_PLACEMENT_3D('',#523,#447,#448);
#363=AXIS2_PLACEMENT_3D('',#526,#450,#451);
#364=AXIS2_PLACEMENT_3D('',#527,#452,#453);
#365=AXIS2_PLACEMENT_3D('',#528,#454,#455);
#366=AXIS2_PLACEMENT_3D('',#529,#456,#457);
#367=AXIS2_PLACEMENT_3D('',#530,#458,#459);
#368=AXIS2_PLACEMENT_3D('',#531,#460,#461);
#369=DIRECTION('axis',(0.,0.,1.));
#370=DIRECTION('refdir',(1.,0.,0.));
#371=DIRECTION('axis',(0.,0.,1.));
#372=DIRECTION('refdir',(1.,0.,0.));
#373=DIRECTION('center_axis',(0.,-1.,0.));
#374=DIRECTION('ref_axis',(-1.,0.,0.));
#375=DIRECTION('center_axis',(0.,1.,0.));
#376=DIRECTION('ref_axis',(-1.,0.,0.));
#377=DIRECTION('center_axis',(0.,1.,0.));
#378=DIRECTION('ref_axis',(-1.,0.,0.));
#379=DIRECTION('',(-0.707106781186546,0.707106781186549,-8.65956056235491E-17));
#380=DIRECTION('center_axis',(0.,-1.,0.));
#381=DIRECTION('ref_axis',(-1.,0.,0.));
#382=DIRECTION('center_axis',(0.,-1.,0.));
#383=DIRECTION('ref_axis',(1.,0.,0.));
#384=DIRECTION('center_axis',(0.,-1.,0.));
#385=DIRECTION('ref_axis',(-1.,0.,0.));
#386=DIRECTION('center_axis',(0.,-1.,0.));
#387=DIRECTION('ref_axis',(-1.,0.,0.));
#388=DIRECTION('',(0.,1.,0.));
#389=DIRECTION('center_axis',(0.,1.,0.));
#390=DIRECTION('ref_axis',(0.,0.,1.));
#391=DIRECTION('center_axis',(0.,-1.,0.));
#392=DIRECTION('ref_axis',(1.,0.,0.));
#393=DIRECTION('center_axis',(0.,-1.,0.));
#394=DIRECTION('ref_axis',(1.,0.,0.));
#395=DIRECTION('center_axis',(0.,1.,0.));
#396=DIRECTION('ref_axis',(-1.,0.,0.));
#397=DIRECTION('center_axis',(0.,1.,0.));
#398=DIRECTION('ref_axis',(-1.,0.,0.));
#399=DIRECTION('',(0.70710678118654,0.707106781186555,8.65956056235484E-17));
#400=DIRECTION('center_axis',(0.,-1.,0.));
#401=DIRECTION('ref_axis',(0.,0.,-1.));
#402=DIRECTION('center_axis',(0.,1.,0.));
#403=DIRECTION('ref_axis',(-1.,0.,0.));
#404=DIRECTION('center_axis',(0.,1.,0.));
#405=DIRECTION('ref_axis',(-1.,0.,0.));
#406=DIRECTION('',(0.,1.,0.));
#407=DIRECTION('center_axis',(0.,1.,0.));
#408=DIRECTION('ref_axis',(-1.,0.,0.));
#409=DIRECTION('center_axis',(0.,1.,0.));
#410=DIRECTION('ref_axis',(0.,0.,1.));
#411=DIRECTION('center_axis',(0.,-1.,0.));
#412=DIRECTION('ref_axis',(1.,0.,0.));
#413=DIRECTION('center_axis',(0.,1.,0.));
#414=DIRECTION('ref_axis',(1.,0.,0.));
#415=DIRECTION('',(0.,-1.,0.));
#416=DIRECTION('axis',(0.,0.,1.));
#417=DIRECTION('refdir',(1.,0.,0.));
#418=DIRECTION('center_axis',(0.,0.,1.));
#419=DIRECTION('ref_axis',(-1.,0.,0.));
#420=DIRECTION('center_axis',(0.,0.,1.));
#421=DIRECTION('ref_axis',(-1.,0.,0.));
#422=DIRECTION('',(0.,0.,1.));
#423=DIRECTION('center_axis',(0.,0.,-1.));
#424=DIRECTION('ref_axis',(-1.,0.,0.));
#425=DIRECTION('center_axis',(0.,0.,1.));
#426=DIRECTION('ref_axis',(-1.,0.,0.));
#427=DIRECTION('center_axis',(0.,0.,1.));
#428=DIRECTION('ref_axis',(-1.,0.,0.));
#429=DIRECTION('',(0.,0.,-1.));
#430=DIRECTION('center_axis',(0.,0.,-1.));
#431=DIRECTION('ref_axis',(-1.,0.,0.));
#432=DIRECTION('center_axis',(0.,0.,1.));
#433=DIRECTION('ref_axis',(1.,0.,0.));
#434=DIRECTION('center_axis',(0.,0.,1.));
#435=DIRECTION('ref_axis',(1.,0.,0.));
#436=DIRECTION('axis',(0.,0.,1.));
#437=DIRECTION('refdir',(1.,0.,0.));
#438=DIRECTION('center_axis',(0.,1.,0.));
#439=DIRECTION('ref_axis',(1.,0.,0.));
#440=DIRECTION('center_axis',(0.,1.,0.));
#441=DIRECTION('ref_axis',(1.,0.,0.));
#442=DIRECTION('',(0.,1.,0.));
#443=DIRECTION('center_axis',(0.,-1.,0.));
#444=DIRECTION('ref_axis',(1.,0.,0.));
#445=DIRECTION('center_axis',(0.,1.,0.));
#446=DIRECTION('ref_axis',(1.,0.,0.));
#447=DIRECTION('center_axis',(0.,1.,0.));
#448=DIRECTION('ref_axis',(1.,0.,0.));
#449=DIRECTION('',(0.,-1.,0.));
#450=DIRECTION('center_axis',(0.,-1.,0.));
#451=DIRECTION('ref_axis',(1.,0.,0.));
#452=DIRECTION('center_axis',(0.,1.,0.));
#453=DIRECTION('ref_axis',(0.,0.,1.));
#454=DIRECTION('center_axis',(0.,1.,0.));
#455=DIRECTION('ref_axis',(0.,0.,1.));
#456=DIRECTION('',(0.,0.,1.));
#457=DIRECTION('',(1.,0.,0.));
#458=DIRECTION('',(0.,-1.,0.));
#459=DIRECTION('',(0.789525124074199,0.,0.61371824028264));
#460=DIRECTION('',(0.929095139924804,0.,0.369840804898688));
#461=DIRECTION('',(0.369840804898688,0.,-0.929095139924804));
#462=CARTESIAN_POINT('',(0.,0.,0.));
#463=CARTESIAN_POINT('',(0.,0.,0.));
#464=CARTESIAN_POINT('Origin',(0.,13.75,0.));
#465=CARTESIAN_POINT('',(31.5,13.5,-3.85763741731416E-15));
#466=CARTESIAN_POINT('',(-31.5,13.5,-3.85763741731416E-15));
#467=CARTESIAN_POINT('Origin',(0.,13.5,0.));
#468=CARTESIAN_POINT('Origin',(0.,13.5,0.));
#469=CARTESIAN_POINT('',(31.,14.,3.7964050773568E-15));
#470=CARTESIAN_POINT('',(31.25,13.75,3.82702124733548E-15));
#471=CARTESIAN_POINT('Origin',(0.,14.,0.));
#472=CARTESIAN_POINT('Origin',(0.,7.,0.));
#473=CARTESIAN_POINT('',(31.5,0.1,3.85763741731416E-15));
#474=CARTESIAN_POINT('',(-31.5,0.1,-3.85763741731416E-15));
#475=CARTESIAN_POINT('Origin',(0.,0.1,0.));
#476=CARTESIAN_POINT('Origin',(0.,0.1,0.));
#477=CARTESIAN_POINT('',(-31.5,7.,-3.85763741731416E-15));
#478=CARTESIAN_POINT('Origin',(31.5,14.,0.));
#479=CARTESIAN_POINT('',(4.25,14.,0.));
#480=CARTESIAN_POINT('',(-4.25,14.,5.20474889637625E-16));
#481=CARTESIAN_POINT('Origin',(0.,14.,0.));
#482=CARTESIAN_POINT('Origin',(0.,14.,0.));
#483=CARTESIAN_POINT('Origin',(0.,0.05,0.));
#484=CARTESIAN_POINT('',(31.4,0.,-3.84539094932269E-15));
#485=CARTESIAN_POINT('Origin',(0.,0.,0.));
#486=CARTESIAN_POINT('',(31.45,0.05,3.85151418331843E-15));
#487=CARTESIAN_POINT('Origin',(0.,0.,0.));
#488=CARTESIAN_POINT('',(27.5,0.,3.36777869765522E-15));
#489=CARTESIAN_POINT('Origin',(0.,0.,0.));
#490=CARTESIAN_POINT('Origin',(0.,0.,0.));
#491=CARTESIAN_POINT('',(27.5,5.6,3.36777869765522E-15));
#492=CARTESIAN_POINT('',(27.5,0.,-3.36777869765522E-15));
#493=CARTESIAN_POINT('Origin',(0.,5.6,0.));
#494=CARTESIAN_POINT('Origin',(-1.35722812747142E-15,5.6,0.));
#495=CARTESIAN_POINT('',(-4.25,5.6,-5.20474889637625E-16));
#496=CARTESIAN_POINT('Origin',(0.,5.6,0.));
#497=CARTESIAN_POINT('Origin',(0.,-76.1886910870759,0.));
#498=CARTESIAN_POINT('',(-4.25,-76.1886910870759,5.20474889637625E-16));
#499=CARTESIAN_POINT('',(0.,0.,0.));
#500=CARTESIAN_POINT('Origin',(0.,0.,0.));
#501=CARTESIAN_POINT('',(5.85,7.16418377501202E-16,0.));
#502=CARTESIAN_POINT('Origin',(0.,0.,0.));
#503=CARTESIAN_POINT('',(5.85,7.16418377501202E-16,5.6));
#504=CARTESIAN_POINT('',(5.85,7.16418377501202E-16,0.));
#505=CARTESIAN_POINT('Origin',(0.,0.,5.6));
#506=CARTESIAN_POINT('Origin',(0.,0.,0.));
#507=CARTESIAN_POINT('',(25.,3.06161699786838E-15,5.6));
#508=CARTESIAN_POINT('Origin',(0.,0.,5.6));
#509=CARTESIAN_POINT('',(25.,3.06161699786838E-15,0.));
#510=CARTESIAN_POINT('',(25.,3.06161699786838E-15,0.));
#511=CARTESIAN_POINT('Origin',(0.,0.,0.));
#512=CARTESIAN_POINT('Origin',(-1.43937264275587E-15,0.,0.));
#513=CARTESIAN_POINT('Origin',(-1.43937264275587E-15,0.,5.6));
#514=CARTESIAN_POINT('',(0.,0.,0.));
#515=CARTESIAN_POINT('Origin',(0.,0.,0.));
#516=CARTESIAN_POINT('',(-25.,0.,3.06161699786838E-15));
#517=CARTESIAN_POINT('Origin',(0.,0.,0.));
#518=CARTESIAN_POINT('',(-25.,5.6,3.06161699786838E-15));
#519=CARTESIAN_POINT('',(-25.,0.,3.06161699786838E-15));
#520=CARTESIAN_POINT('Origin',(0.,5.6,0.));
#521=CARTESIAN_POINT('Origin',(0.,0.,0.));
#522=CARTESIAN_POINT('',(-27.5,5.6,3.36777869765522E-15));
#523=CARTESIAN_POINT('Origin',(0.,5.6,0.));
#524=CARTESIAN_POINT('',(-27.5,0.,3.36777869765522E-15));
#525=CARTESIAN_POINT('',(-27.5,0.,3.36777869765522E-15));
#526=CARTESIAN_POINT('Origin',(0.,0.,0.));
#527=CARTESIAN_POINT('Origin',(2.43380803013824E-15,0.,0.));
#528=CARTESIAN_POINT('Origin',(2.43380803013824E-15,5.6,0.));
#529=CARTESIAN_POINT('',(0.,0.,0.));
#530=CARTESIAN_POINT('',(0.,5.6,0.));
#531=CARTESIAN_POINT('',(0.,0.,0.));
#532=UNCERTAINTY_MEASURE_WITH_UNIT(LENGTH_MEASURE(0.01),#542,
'DISTANCE_ACCURACY_VALUE',
'Maximum model space distance between geometric entities at asserted c
onnectivities');
#533=UNCERTAINTY_MEASURE_WITH_UNIT(LENGTH_MEASURE(0.01),#542,
'DISTANCE_ACCURACY_VALUE',
'Maximum model space distance between geometric entities at asserted c
onnectivities');
#534=UNCERTAINTY_MEASURE_WITH_UNIT(LENGTH_MEASURE(0.01),#542,
'DISTANCE_ACCURACY_VALUE',
'Maximum model space distance between geometric entities at asserted c
onnectivities');
#535=UNCERTAINTY_MEASURE_WITH_UNIT(LENGTH_MEASURE(0.01),#542,
'DISTANCE_ACCURACY_VALUE',
'Maximum model space distance between geometric entities at asserted c
onnectivities');
#536=UNCERTAINTY_MEASURE_WITH_UNIT(LENGTH_MEASURE(0.01),#542,
'DISTANCE_ACCURACY_VALUE',
'Maximum model space distance between geometric entities at asserted c
onnectivities');
#537=(
GEOMETRIC_REPRESENTATION_CONTEXT(3)
GLOBAL_UNCERTAINTY_ASSIGNED_CONTEXT((#532))
GLOBAL_UNIT_ASSIGNED_CONTEXT((#542,#544,#545))
REPRESENTATION_CONTEXT('','3D')
);
#538=(
GEOMETRIC_REPRESENTATION_CONTEXT(3)
GLOBAL_UNCERTAINTY_ASSIGNED_CONTEXT((#533))
GLOBAL_UNIT_ASSIGNED_CONTEXT((#542,#544,#545))
REPRESENTATION_CONTEXT('','3D')
);
#539=(
GEOMETRIC_REPRESENTATION_CONTEXT(3)
GLOBAL_UNCERTAINTY_ASSIGNED_CONTEXT((#534))
GLOBAL_UNIT_ASSIGNED_CONTEXT((#542,#544,#545))
REPRESENTATION_CONTEXT('','3D')
);
#540=(
GEOMETRIC_REPRESENTATION_CONTEXT(3)
GLOBAL_UNCERTAINTY_ASSIGNED_CONTEXT((#535))
GLOBAL_UNIT_ASSIGNED_CONTEXT((#542,#544,#545))
REPRESENTATION_CONTEXT('','3D')
);
#541=(
GEOMETRIC_REPRESENTATION_CONTEXT(3)
GLOBAL_UNCERTAINTY_ASSIGNED_CONTEXT((#536))
GLOBAL_UNIT_ASSIGNED_CONTEXT((#542,#544,#545))
REPRESENTATION_CONTEXT('','3D')
);
#542=(
LENGTH_UNIT()
NAMED_UNIT(*)
SI_UNIT(.MILLI.,.METRE.)
);
#543=(
LENGTH_UNIT()
NAMED_UNIT(*)
SI_UNIT(.CENTI.,.METRE.)
);
#544=(
NAMED_UNIT(*)
PLANE_ANGLE_UNIT()
SI_UNIT($,.RADIAN.)
);
#545=(
NAMED_UNIT(*)
SI_UNIT($,.STERADIAN.)
SOLID_ANGLE_UNIT()
);
#546=SHAPE_DEFINITION_REPRESENTATION(#550,#557);
#547=SHAPE_DEFINITION_REPRESENTATION(#551,#558);
#548=SHAPE_DEFINITION_REPRESENTATION(#552,#559);
#549=SHAPE_DEFINITION_REPRESENTATION(#553,#560);
#550=PRODUCT_DEFINITION_SHAPE('',$,#562);
#551=PRODUCT_DEFINITION_SHAPE('',$,#563);
#552=PRODUCT_DEFINITION_SHAPE('',$,#564);
#553=PRODUCT_DEFINITION_SHAPE('',$,#565);
#554=PRODUCT_DEFINITION_SHAPE($,$,#20);
#555=PRODUCT_DEFINITION_SHAPE($,$,#21);
#556=PRODUCT_DEFINITION_SHAPE($,$,#22);
#557=SHAPE_REPRESENTATION('',(#327,#366,#367,#368),#537);
#558=SHAPE_REPRESENTATION('',(#328),#538);
#559=SHAPE_REPRESENTATION('',(#348),#539);
#560=SHAPE_REPRESENTATION('',(#357),#540);
#561=PRODUCT_DEFINITION_CONTEXT('part definition',#575,'design');
#562=PRODUCT_DEFINITION('GM17442','GM17442',#566,#561);
#563=PRODUCT_DEFINITION('E0121008','E0121008',#567,#561);
#564=PRODUCT_DEFINITION('E0121010','E0121010',#568,#561);
#565=PRODUCT_DEFINITION('E0121009','E0121009',#569,#561);
#566=PRODUCT_DEFINITION_FORMATION('-',$,#577);
#567=PRODUCT_DEFINITION_FORMATION('-',$,#578);
#568=PRODUCT_DEFINITION_FORMATION('-',$,#579);
#569=PRODUCT_DEFINITION_FORMATION('-',$,#580);
#570=PRODUCT_RELATED_PRODUCT_CATEGORY('GM17442','GM17442',(#577));
#571=PRODUCT_RELATED_PRODUCT_CATEGORY('E0121008','E0121008',(#578));
#572=PRODUCT_RELATED_PRODUCT_CATEGORY('E0121010','E0121010',(#579));
#573=PRODUCT_RELATED_PRODUCT_CATEGORY('E0121009','E0121009',(#580));
#574=APPLICATION_PROTOCOL_DEFINITION('international standard',
'automotive_design',2009,#575);
#575=APPLICATION_CONTEXT(
'Core Data for Automotive Mechanical Design Process');
#576=PRODUCT_CONTEXT('part definition',#575,'mechanical');
#577=PRODUCT('GM17442','GM17442',$,(#576));
#578=PRODUCT('E0121008','E0121008',$,(#576));
#579=PRODUCT('E0121010','E0121010',$,(#576));
#580=PRODUCT('E0121009','E0121009',$,(#576));
ENDSEC;
END-ISO-10303-21;
