ISO-10303-21;
HEADER;
/* Generated by software containing ST-Developer
 * from STEP Tools, Inc. (www.steptools.com) 
 */

FILE_DESCRIPTION(
/* description */ ('',
'CAx-IF Rec.Pracs.---Representation and Presentation of Product Manufa
cturing Information (PMI)---4.0---2014-10-13'),
/* implementation_level */ '2;1');

FILE_NAME(
/* name */ 
'C:\\Workspace\\Documents\\Products\\Handling\\Pot magnets\\GM17482\\G
M17482.stp',
/* time_stamp */ '2020-09-03T10:55:52+02:00',
/* author */ ('tm'),
/* organization */ (''),
/* preprocessor_version */ 'ST-DEVELOPER v17.2',
/* originating_system */ 'Autodesk Inventor 2019',
/* authorisation */ '');

FILE_SCHEMA (('AP242_MANAGED_MODEL_BASED_3D_ENGINEERING_MIM_LF { 1 0 10303 442 1 1 4 }'));
ENDSEC;

DATA;
#10=MECHANICAL_DESIGN_GEOMETRIC_PRESENTATION_REPRESENTATION('',(#35,#36,
#37,#38,#39,#40,#41,#42,#43,#44,#45,#46),#590);
#11=ITEM_DEFINED_TRANSFORMATION($,$,#352,#398);
#12=ITEM_DEFINED_TRANSFORMATION($,$,#377,#399);
#13=(
REPRESENTATION_RELATIONSHIP($,$,#604,#603)
REPRESENTATION_RELATIONSHIP_WITH_TRANSFORMATION(#11)
SHAPE_REPRESENTATION_RELATIONSHIP()
);
#14=(
REPRESENTATION_RELATIONSHIP($,$,#605,#603)
REPRESENTATION_RELATIONSHIP_WITH_TRANSFORMATION(#12)
SHAPE_REPRESENTATION_RELATIONSHIP()
);
#15=CONTEXT_DEPENDENT_SHAPE_REPRESENTATION(#13,#601);
#16=CONTEXT_DEPENDENT_SHAPE_REPRESENTATION(#14,#602);
#17=NEXT_ASSEMBLY_USAGE_OCCURRENCE('E0134703:1','E0134703:1',
'E0134703:1',#607,#608,'E0134703:1');
#18=NEXT_ASSEMBLY_USAGE_OCCURRENCE('E0134704:1','E0134704:1',
'E0134704:1',#607,#609,'E0134704:1');
#19=CONICAL_SURFACE('',#378,2.075,0.785398163397448);
#20=CONICAL_SURFACE('',#385,3.9,0.785398163397448);
#21=GEOMETRICALLY_BOUNDED_WIREFRAME_SHAPE_REPRESENTATION('',(#23,#24,#25),
#588);
#22=GEOMETRICALLY_BOUNDED_WIREFRAME_SHAPE_REPRESENTATION('',(#26,#27),#589);
#23=GEOMETRIC_CURVE_SET('Sketch3',(#130));
#24=GEOMETRIC_CURVE_SET('Sketch5',(#131));
#25=GEOMETRIC_CURVE_SET('Sketch6',(#132));
#26=GEOMETRIC_CURVE_SET('Sketch2',(#143));
#27=GEOMETRIC_CURVE_SET('Sketch3',(#144));
#28=SHAPE_REPRESENTATION_RELATIONSHIP('SRR','None',#604,#32);
#29=SHAPE_REPRESENTATION_RELATIONSHIP('SRR','None',#604,#21);
#30=SHAPE_REPRESENTATION_RELATIONSHIP('SRR','None',#605,#33);
#31=SHAPE_REPRESENTATION_RELATIONSHIP('SRR','None',#605,#22);
#32=ADVANCED_BREP_SHAPE_REPRESENTATION('',(#47),#588);
#33=ADVANCED_BREP_SHAPE_REPRESENTATION('',(#48),#589);
#34=INVISIBILITY((#36,#37,#38,#39,#40,#41,#43,#44,#45,#46));
#35=STYLED_ITEM('',(#303),#47);
#36=STYLED_ITEM('',(#304),#130);
#37=STYLED_ITEM('',(#304),#131);
#38=STYLED_ITEM('',(#304),#132);
#39=STYLED_ITEM('',(#305),#23);
#40=STYLED_ITEM('',(#306),#24);
#41=STYLED_ITEM('',(#307),#25);
#42=STYLED_ITEM('',(#308),#48);
#43=STYLED_ITEM('',(#304),#143);
#44=STYLED_ITEM('',(#304),#144);
#45=STYLED_ITEM('',(#309),#26);
#46=STYLED_ITEM('',(#310),#27);
#47=MANIFOLD_SOLID_BREP('Solid2',#278);
#48=MANIFOLD_SOLID_BREP('Solid2',#279);
#49=TOROIDAL_SURFACE('',#361,10.5,0.5);
#50=TOROIDAL_SURFACE('',#369,10.5,0.5);
#51=FACE_BOUND('',#84,.T.);
#52=FACE_BOUND('',#90,.T.);
#53=FACE_BOUND('',#96,.T.);
#54=FACE_BOUND('',#98,.T.);
#55=FACE_BOUND('',#101,.T.);
#56=PLANE('',#356);
#57=PLANE('',#360);
#58=PLANE('',#368);
#59=PLANE('',#373);
#60=PLANE('',#390);
#61=PLANE('',#391);
#62=PLANE('',#395);
#63=FACE_OUTER_BOUND('',#80,.T.);
#64=FACE_OUTER_BOUND('',#81,.T.);
#65=FACE_OUTER_BOUND('',#82,.T.);
#66=FACE_OUTER_BOUND('',#83,.T.);
#67=FACE_OUTER_BOUND('',#85,.T.);
#68=FACE_OUTER_BOUND('',#86,.T.);
#69=FACE_OUTER_BOUND('',#87,.T.);
#70=FACE_OUTER_BOUND('',#88,.T.);
#71=FACE_OUTER_BOUND('',#89,.T.);
#72=FACE_OUTER_BOUND('',#91,.T.);
#73=FACE_OUTER_BOUND('',#92,.T.);
#74=FACE_OUTER_BOUND('',#93,.T.);
#75=FACE_OUTER_BOUND('',#94,.T.);
#76=FACE_OUTER_BOUND('',#95,.T.);
#77=FACE_OUTER_BOUND('',#97,.T.);
#78=FACE_OUTER_BOUND('',#99,.T.);
#79=FACE_OUTER_BOUND('',#100,.T.);
#80=EDGE_LOOP('',(#195,#196,#197,#198));
#81=EDGE_LOOP('',(#199));
#82=EDGE_LOOP('',(#200,#201,#202,#203));
#83=EDGE_LOOP('',(#204));
#84=EDGE_LOOP('',(#205));
#85=EDGE_LOOP('',(#206,#207,#208,#209));
#86=EDGE_LOOP('',(#210,#211,#212,#213,#214));
#87=EDGE_LOOP('',(#215));
#88=EDGE_LOOP('',(#216,#217,#218,#219,#220,#221));
#89=EDGE_LOOP('',(#222,#223));
#90=EDGE_LOOP('',(#224));
#91=EDGE_LOOP('',(#225,#226,#227,#228,#229,#230));
#92=EDGE_LOOP('',(#231,#232,#233,#234,#235));
#93=EDGE_LOOP('',(#236,#237,#238,#239));
#94=EDGE_LOOP('',(#240,#241,#242,#243));
#95=EDGE_LOOP('',(#244));
#96=EDGE_LOOP('',(#245,#246));
#97=EDGE_LOOP('',(#247));
#98=EDGE_LOOP('',(#248));
#99=EDGE_LOOP('',(#249,#250,#251,#252));
#100=EDGE_LOOP('',(#253));
#101=EDGE_LOOP('',(#254));
#102=LINE('',#512,#110);
#103=LINE('',#519,#111);
#104=LINE('',#532,#112);
#105=LINE('',#552,#113);
#106=LINE('',#558,#114);
#107=LINE('',#564,#115);
#108=LINE('',#568,#116);
#109=LINE('',#577,#117);
#110=VECTOR('',#408,4.);
#111=VECTOR('',#417,9.);
#112=VECTOR('',#434,11.);
#113=VECTOR('',#463,2.075);
#114=VECTOR('',#470,1.65);
#115=VECTOR('',#477,3.9);
#116=VECTOR('',#482,4.);
#117=VECTOR('',#495,9.);
#118=CIRCLE('',#354,4.);
#119=CIRCLE('',#355,4.);
#120=CIRCLE('',#357,9.);
#121=CIRCLE('',#359,9.);
#122=CIRCLE('',#362,10.5);
#123=CIRCLE('',#363,0.5);
#124=CIRCLE('',#364,11.);
#125=CIRCLE('',#366,11.);
#126=CIRCLE('',#367,11.);
#127=CIRCLE('',#370,10.5);
#128=CIRCLE('',#371,0.5);
#129=CIRCLE('',#372,10.5);
#130=CIRCLE('',#374,11.);
#131=CIRCLE('',#375,9.);
#132=CIRCLE('',#376,4.);
#133=CIRCLE('',#379,2.5);
#134=CIRCLE('',#380,2.5);
#135=CIRCLE('',#381,1.65);
#136=CIRCLE('',#382,1.65);
#137=CIRCLE('',#384,1.65);
#138=CIRCLE('',#386,3.8);
#139=CIRCLE('',#387,4.);
#140=CIRCLE('',#389,4.);
#141=CIRCLE('',#392,9.);
#142=CIRCLE('',#394,9.);
#143=CIRCLE('',#396,9.);
#144=CIRCLE('',#397,4.);
#145=VERTEX_POINT('',#509);
#146=VERTEX_POINT('',#511);
#147=VERTEX_POINT('',#515);
#148=VERTEX_POINT('',#518);
#149=VERTEX_POINT('',#523);
#150=VERTEX_POINT('',#525);
#151=VERTEX_POINT('',#529);
#152=VERTEX_POINT('',#530);
#153=VERTEX_POINT('',#536);
#154=VERTEX_POINT('',#537);
#155=VERTEX_POINT('',#547);
#156=VERTEX_POINT('',#548);
#157=VERTEX_POINT('',#551);
#158=VERTEX_POINT('',#553);
#159=VERTEX_POINT('',#557);
#160=VERTEX_POINT('',#561);
#161=VERTEX_POINT('',#563);
#162=VERTEX_POINT('',#567);
#163=VERTEX_POINT('',#572);
#164=VERTEX_POINT('',#575);
#165=EDGE_CURVE('',#145,#145,#118,.T.);
#166=EDGE_CURVE('',#145,#146,#102,.T.);
#167=EDGE_CURVE('',#146,#146,#119,.T.);
#168=EDGE_CURVE('',#147,#147,#120,.T.);
#169=EDGE_CURVE('',#147,#148,#103,.T.);
#170=EDGE_CURVE('',#148,#148,#121,.T.);
#171=EDGE_CURVE('',#149,#149,#122,.T.);
#172=EDGE_CURVE('',#149,#150,#123,.T.);
#173=EDGE_CURVE('',#150,#150,#124,.T.);
#174=EDGE_CURVE('',#151,#152,#125,.T.);
#175=EDGE_CURVE('',#151,#150,#104,.T.);
#176=EDGE_CURVE('',#152,#151,#126,.T.);
#177=EDGE_CURVE('',#153,#154,#127,.T.);
#178=EDGE_CURVE('',#154,#152,#128,.T.);
#179=EDGE_CURVE('',#154,#153,#129,.T.);
#180=EDGE_CURVE('',#155,#156,#133,.T.);
#181=EDGE_CURVE('',#156,#155,#134,.T.);
#182=EDGE_CURVE('',#156,#157,#105,.T.);
#183=EDGE_CURVE('',#158,#157,#135,.T.);
#184=EDGE_CURVE('',#157,#158,#136,.T.);
#185=EDGE_CURVE('',#157,#159,#106,.T.);
#186=EDGE_CURVE('',#159,#159,#137,.T.);
#187=EDGE_CURVE('',#160,#160,#138,.T.);
#188=EDGE_CURVE('',#160,#161,#107,.T.);
#189=EDGE_CURVE('',#161,#161,#139,.T.);
#190=EDGE_CURVE('',#161,#162,#108,.T.);
#191=EDGE_CURVE('',#162,#162,#140,.T.);
#192=EDGE_CURVE('',#163,#163,#141,.T.);
#193=EDGE_CURVE('',#164,#164,#142,.T.);
#194=EDGE_CURVE('',#164,#163,#109,.T.);
#195=ORIENTED_EDGE('',*,*,#165,.F.);
#196=ORIENTED_EDGE('',*,*,#166,.T.);
#197=ORIENTED_EDGE('',*,*,#167,.F.);
#198=ORIENTED_EDGE('',*,*,#166,.F.);
#199=ORIENTED_EDGE('',*,*,#168,.F.);
#200=ORIENTED_EDGE('',*,*,#168,.T.);
#201=ORIENTED_EDGE('',*,*,#169,.T.);
#202=ORIENTED_EDGE('',*,*,#170,.T.);
#203=ORIENTED_EDGE('',*,*,#169,.F.);
#204=ORIENTED_EDGE('',*,*,#170,.F.);
#205=ORIENTED_EDGE('',*,*,#167,.T.);
#206=ORIENTED_EDGE('',*,*,#171,.T.);
#207=ORIENTED_EDGE('',*,*,#172,.T.);
#208=ORIENTED_EDGE('',*,*,#173,.T.);
#209=ORIENTED_EDGE('',*,*,#172,.F.);
#210=ORIENTED_EDGE('',*,*,#174,.F.);
#211=ORIENTED_EDGE('',*,*,#175,.T.);
#212=ORIENTED_EDGE('',*,*,#173,.F.);
#213=ORIENTED_EDGE('',*,*,#175,.F.);
#214=ORIENTED_EDGE('',*,*,#176,.F.);
#215=ORIENTED_EDGE('',*,*,#171,.F.);
#216=ORIENTED_EDGE('',*,*,#177,.T.);
#217=ORIENTED_EDGE('',*,*,#178,.T.);
#218=ORIENTED_EDGE('',*,*,#176,.T.);
#219=ORIENTED_EDGE('',*,*,#174,.T.);
#220=ORIENTED_EDGE('',*,*,#178,.F.);
#221=ORIENTED_EDGE('',*,*,#179,.T.);
#222=ORIENTED_EDGE('',*,*,#177,.F.);
#223=ORIENTED_EDGE('',*,*,#179,.F.);
#224=ORIENTED_EDGE('',*,*,#165,.T.);
#225=ORIENTED_EDGE('',*,*,#180,.F.);
#226=ORIENTED_EDGE('',*,*,#181,.F.);
#227=ORIENTED_EDGE('',*,*,#182,.T.);
#228=ORIENTED_EDGE('',*,*,#183,.F.);
#229=ORIENTED_EDGE('',*,*,#184,.F.);
#230=ORIENTED_EDGE('',*,*,#182,.F.);
#231=ORIENTED_EDGE('',*,*,#183,.T.);
#232=ORIENTED_EDGE('',*,*,#185,.T.);
#233=ORIENTED_EDGE('',*,*,#186,.F.);
#234=ORIENTED_EDGE('',*,*,#185,.F.);
#235=ORIENTED_EDGE('',*,*,#184,.T.);
#236=ORIENTED_EDGE('',*,*,#187,.T.);
#237=ORIENTED_EDGE('',*,*,#188,.T.);
#238=ORIENTED_EDGE('',*,*,#189,.T.);
#239=ORIENTED_EDGE('',*,*,#188,.F.);
#240=ORIENTED_EDGE('',*,*,#189,.F.);
#241=ORIENTED_EDGE('',*,*,#190,.T.);
#242=ORIENTED_EDGE('',*,*,#191,.F.);
#243=ORIENTED_EDGE('',*,*,#190,.F.);
#244=ORIENTED_EDGE('',*,*,#187,.F.);
#245=ORIENTED_EDGE('',*,*,#180,.T.);
#246=ORIENTED_EDGE('',*,*,#181,.T.);
#247=ORIENTED_EDGE('',*,*,#192,.T.);
#248=ORIENTED_EDGE('',*,*,#186,.T.);
#249=ORIENTED_EDGE('',*,*,#193,.F.);
#250=ORIENTED_EDGE('',*,*,#194,.T.);
#251=ORIENTED_EDGE('',*,*,#192,.F.);
#252=ORIENTED_EDGE('',*,*,#194,.F.);
#253=ORIENTED_EDGE('',*,*,#193,.T.);
#254=ORIENTED_EDGE('',*,*,#191,.T.);
#255=CYLINDRICAL_SURFACE('',#353,4.);
#256=CYLINDRICAL_SURFACE('',#358,9.);
#257=CYLINDRICAL_SURFACE('',#365,11.);
#258=CYLINDRICAL_SURFACE('',#383,1.65);
#259=CYLINDRICAL_SURFACE('',#388,4.);
#260=CYLINDRICAL_SURFACE('',#393,9.);
#261=ADVANCED_FACE('',(#63),#255,.F.);
#262=ADVANCED_FACE('',(#64),#56,.T.);
#263=ADVANCED_FACE('',(#65),#256,.F.);
#264=ADVANCED_FACE('',(#66,#51),#57,.F.);
#265=ADVANCED_FACE('',(#67),#49,.T.);
#266=ADVANCED_FACE('',(#68),#257,.T.);
#267=ADVANCED_FACE('',(#69),#58,.F.);
#268=ADVANCED_FACE('',(#70),#50,.T.);
#269=ADVANCED_FACE('',(#71,#52),#59,.T.);
#270=ADVANCED_FACE('',(#72),#19,.F.);
#271=ADVANCED_FACE('',(#73),#258,.F.);
#272=ADVANCED_FACE('',(#74),#20,.T.);
#273=ADVANCED_FACE('',(#75),#259,.T.);
#274=ADVANCED_FACE('',(#76,#53),#60,.T.);
#275=ADVANCED_FACE('',(#77,#54),#61,.F.);
#276=ADVANCED_FACE('',(#78),#260,.T.);
#277=ADVANCED_FACE('',(#79,#55),#62,.T.);
#278=CLOSED_SHELL('',(#261,#262,#263,#264,#265,#266,#267,#268,#269));
#279=CLOSED_SHELL('',(#270,#271,#272,#273,#274,#275,#276,#277));
#280=DERIVED_UNIT_ELEMENT(#284,1.);
#281=DERIVED_UNIT_ELEMENT(#592,3.);
#282=DERIVED_UNIT_ELEMENT(#284,1.);
#283=DERIVED_UNIT_ELEMENT(#592,3.);
#284=(
MASS_UNIT()
NAMED_UNIT(*)
SI_UNIT($,.GRAM.)
);
#285=DERIVED_UNIT((#280,#281));
#286=DERIVED_UNIT((#282,#283));
#287=MEASURE_REPRESENTATION_ITEM('density measure',
POSITIVE_RATIO_MEASURE(1.425),#285);
#288=MEASURE_REPRESENTATION_ITEM('density measure',
POSITIVE_RATIO_MEASURE(8.03),#286);
#289=PROPERTY_DEFINITION_REPRESENTATION(#299,#293);
#290=PROPERTY_DEFINITION_REPRESENTATION(#300,#294);
#291=PROPERTY_DEFINITION_REPRESENTATION(#301,#295);
#292=PROPERTY_DEFINITION_REPRESENTATION(#302,#296);
#293=REPRESENTATION('material name',(#297),#588);
#294=REPRESENTATION('density',(#287),#588);
#295=REPRESENTATION('material name',(#298),#589);
#296=REPRESENTATION('density',(#288),#589);
#297=DESCRIPTIVE_REPRESENTATION_ITEM('_Plastic Rubber, Black',
'_Plastic Rubber, Black');
#298=DESCRIPTIVE_REPRESENTATION_ITEM('AISI 304','AISI 304');
#299=PROPERTY_DEFINITION('material property','material name',#608);
#300=PROPERTY_DEFINITION('material property','density of part',#608);
#301=PROPERTY_DEFINITION('material property','material name',#609);
#302=PROPERTY_DEFINITION('material property','density of part',#609);
#303=PRESENTATION_STYLE_ASSIGNMENT((#311));
#304=PRESENTATION_STYLE_ASSIGNMENT((#312));
#305=PRESENTATION_STYLE_ASSIGNMENT((NULL_STYLE(.NULL.)));
#306=PRESENTATION_STYLE_ASSIGNMENT((NULL_STYLE(.NULL.)));
#307=PRESENTATION_STYLE_ASSIGNMENT((NULL_STYLE(.NULL.)));
#308=PRESENTATION_STYLE_ASSIGNMENT((#313));
#309=PRESENTATION_STYLE_ASSIGNMENT((NULL_STYLE(.NULL.)));
#310=PRESENTATION_STYLE_ASSIGNMENT((NULL_STYLE(.NULL.)));
#311=SURFACE_STYLE_USAGE(.BOTH.,#318);
#312=SURFACE_STYLE_USAGE(.BOTH.,#319);
#313=SURFACE_STYLE_USAGE(.BOTH.,#320);
#314=SURFACE_STYLE_RENDERING_WITH_PROPERTIES($,#330,(#316));
#315=SURFACE_STYLE_RENDERING_WITH_PROPERTIES($,#332,(#317));
#316=SURFACE_STYLE_TRANSPARENT(0.);
#317=SURFACE_STYLE_TRANSPARENT(0.);
#318=SURFACE_SIDE_STYLE('',(#321,#314));
#319=SURFACE_SIDE_STYLE('',(#322));
#320=SURFACE_SIDE_STYLE('',(#323,#315));
#321=SURFACE_STYLE_FILL_AREA(#324);
#322=SURFACE_STYLE_FILL_AREA(#325);
#323=SURFACE_STYLE_FILL_AREA(#326);
#324=FILL_AREA_STYLE('',(#327));
#325=FILL_AREA_STYLE('',(#328));
#326=FILL_AREA_STYLE('',(#329));
#327=FILL_AREA_STYLE_COLOUR('',#330);
#328=FILL_AREA_STYLE_COLOUR('',#331);
#329=FILL_AREA_STYLE_COLOUR('',#332);
#330=COLOUR_RGB('',0.,0.,0.);
#331=COLOUR_RGB('',0.,0.250980392156863,0.501960784313725);
#332=COLOUR_RGB('',0.745098039215686,0.737254901960784,0.729411764705882);
#333=DATE_TIME_ROLE('creation_date');
#334=DATE_TIME_ROLE('creation_date');
#335=DATE_TIME_ROLE('creation_date');
#336=APPLIED_DATE_AND_TIME_ASSIGNMENT(#339,#333,(#607));
#337=APPLIED_DATE_AND_TIME_ASSIGNMENT(#340,#334,(#608));
#338=APPLIED_DATE_AND_TIME_ASSIGNMENT(#341,#335,(#609));
#339=DATE_AND_TIME(#342,#345);
#340=DATE_AND_TIME(#343,#346);
#341=DATE_AND_TIME(#344,#347);
#342=CALENDAR_DATE(2020,11,8);
#343=CALENDAR_DATE(2020,11,8);
#344=CALENDAR_DATE(2020,11,8);
#345=LOCAL_TIME(8,3,46.,#348);
#346=LOCAL_TIME(7,38,32.,#349);
#347=LOCAL_TIME(7,38,24.,#350);
#348=COORDINATED_UNIVERSAL_TIME_OFFSET(0,0,.BEHIND.);
#349=COORDINATED_UNIVERSAL_TIME_OFFSET(0,0,.BEHIND.);
#350=COORDINATED_UNIVERSAL_TIME_OFFSET(0,0,.BEHIND.);
#351=AXIS2_PLACEMENT_3D('placement',#506,#400,#401);
#352=AXIS2_PLACEMENT_3D('placement',#507,#402,#403);
#353=AXIS2_PLACEMENT_3D('',#508,#404,#405);
#354=AXIS2_PLACEMENT_3D('',#510,#406,#407);
#355=AXIS2_PLACEMENT_3D('',#513,#409,#410);
#356=AXIS2_PLACEMENT_3D('',#514,#411,#412);
#357=AXIS2_PLACEMENT_3D('',#516,#413,#414);
#358=AXIS2_PLACEMENT_3D('',#517,#415,#416);
#359=AXIS2_PLACEMENT_3D('',#520,#418,#419);
#360=AXIS2_PLACEMENT_3D('',#521,#420,#421);
#361=AXIS2_PLACEMENT_3D('',#522,#422,#423);
#362=AXIS2_PLACEMENT_3D('',#524,#424,#425);
#363=AXIS2_PLACEMENT_3D('',#526,#426,#427);
#364=AXIS2_PLACEMENT_3D('',#527,#428,#429);
#365=AXIS2_PLACEMENT_3D('',#528,#430,#431);
#366=AXIS2_PLACEMENT_3D('',#531,#432,#433);
#367=AXIS2_PLACEMENT_3D('',#533,#435,#436);
#368=AXIS2_PLACEMENT_3D('',#534,#437,#438);
#369=AXIS2_PLACEMENT_3D('',#535,#439,#440);
#370=AXIS2_PLACEMENT_3D('',#538,#441,#442);
#371=AXIS2_PLACEMENT_3D('',#539,#443,#444);
#372=AXIS2_PLACEMENT_3D('',#540,#445,#446);
#373=AXIS2_PLACEMENT_3D('',#541,#447,#448);
#374=AXIS2_PLACEMENT_3D('',#542,#449,#450);
#375=AXIS2_PLACEMENT_3D('',#543,#451,#452);
#376=AXIS2_PLACEMENT_3D('',#544,#453,#454);
#377=AXIS2_PLACEMENT_3D('placement',#545,#455,#456);
#378=AXIS2_PLACEMENT_3D('',#546,#457,#458);
#379=AXIS2_PLACEMENT_3D('',#549,#459,#460);
#380=AXIS2_PLACEMENT_3D('',#550,#461,#462);
#381=AXIS2_PLACEMENT_3D('',#554,#464,#465);
#382=AXIS2_PLACEMENT_3D('',#555,#466,#467);
#383=AXIS2_PLACEMENT_3D('',#556,#468,#469);
#384=AXIS2_PLACEMENT_3D('',#559,#471,#472);
#385=AXIS2_PLACEMENT_3D('',#560,#473,#474);
#386=AXIS2_PLACEMENT_3D('',#562,#475,#476);
#387=AXIS2_PLACEMENT_3D('',#565,#478,#479);
#388=AXIS2_PLACEMENT_3D('',#566,#480,#481);
#389=AXIS2_PLACEMENT_3D('',#569,#483,#484);
#390=AXIS2_PLACEMENT_3D('',#570,#485,#486);
#391=AXIS2_PLACEMENT_3D('',#571,#487,#488);
#392=AXIS2_PLACEMENT_3D('',#573,#489,#490);
#393=AXIS2_PLACEMENT_3D('',#574,#491,#492);
#394=AXIS2_PLACEMENT_3D('',#576,#493,#494);
#395=AXIS2_PLACEMENT_3D('',#578,#496,#497);
#396=AXIS2_PLACEMENT_3D('',#579,#498,#499);
#397=AXIS2_PLACEMENT_3D('',#580,#500,#501);
#398=AXIS2_PLACEMENT_3D('',#581,#502,#503);
#399=AXIS2_PLACEMENT_3D('',#582,#504,#505);
#400=DIRECTION('axis',(0.,0.,1.));
#401=DIRECTION('refdir',(1.,0.,0.));
#402=DIRECTION('axis',(0.,0.,1.));
#403=DIRECTION('refdir',(1.,0.,0.));
#404=DIRECTION('center_axis',(0.,0.,-1.));
#405=DIRECTION('ref_axis',(-1.,0.,0.));
#406=DIRECTION('center_axis',(0.,0.,-1.));
#407=DIRECTION('ref_axis',(-1.,0.,0.));
#408=DIRECTION('',(0.,0.,-1.));
#409=DIRECTION('center_axis',(0.,0.,1.));
#410=DIRECTION('ref_axis',(-1.,0.,0.));
#411=DIRECTION('center_axis',(0.,0.,1.));
#412=DIRECTION('ref_axis',(1.,0.,0.));
#413=DIRECTION('center_axis',(0.,0.,-1.));
#414=DIRECTION('ref_axis',(-1.,0.,0.));
#415=DIRECTION('center_axis',(0.,0.,1.));
#416=DIRECTION('ref_axis',(-1.,0.,0.));
#417=DIRECTION('',(0.,0.,1.));
#418=DIRECTION('center_axis',(0.,0.,1.));
#419=DIRECTION('ref_axis',(-1.,0.,0.));
#420=DIRECTION('center_axis',(0.,0.,1.));
#421=DIRECTION('ref_axis',(1.,0.,0.));
#422=DIRECTION('center_axis',(0.,0.,-1.));
#423=DIRECTION('ref_axis',(-1.,0.,0.));
#424=DIRECTION('center_axis',(0.,0.,1.));
#425=DIRECTION('ref_axis',(-1.,0.,0.));
#426=DIRECTION('center_axis',(-1.22464679914735E-16,-1.,0.));
#427=DIRECTION('ref_axis',(1.,-1.22464679914735E-16,0.));
#428=DIRECTION('center_axis',(0.,0.,-1.));
#429=DIRECTION('ref_axis',(-1.,0.,0.));
#430=DIRECTION('center_axis',(0.,0.,1.));
#431=DIRECTION('ref_axis',(-1.,0.,0.));
#432=DIRECTION('center_axis',(0.,0.,1.));
#433=DIRECTION('ref_axis',(-1.,0.,0.));
#434=DIRECTION('',(0.,0.,-1.));
#435=DIRECTION('center_axis',(0.,0.,1.));
#436=DIRECTION('ref_axis',(-1.,0.,0.));
#437=DIRECTION('center_axis',(0.,0.,1.));
#438=DIRECTION('ref_axis',(1.,0.,0.));
#439=DIRECTION('center_axis',(0.,0.,1.));
#440=DIRECTION('ref_axis',(1.,0.,0.));
#441=DIRECTION('center_axis',(0.,0.,-1.));
#442=DIRECTION('ref_axis',(-1.,0.,0.));
#443=DIRECTION('center_axis',(1.22464679914735E-16,-1.,0.));
#444=DIRECTION('ref_axis',(-1.,-1.22464679914735E-16,0.));
#445=DIRECTION('center_axis',(0.,0.,-1.));
#446=DIRECTION('ref_axis',(-1.,0.,0.));
#447=DIRECTION('center_axis',(0.,0.,1.));
#448=DIRECTION('ref_axis',(1.,0.,0.));
#449=DIRECTION('center_axis',(0.,0.,1.));
#450=DIRECTION('ref_axis',(1.,0.,0.));
#451=DIRECTION('center_axis',(0.,0.,1.));
#452=DIRECTION('ref_axis',(1.,0.,0.));
#453=DIRECTION('center_axis',(0.,0.,1.));
#454=DIRECTION('ref_axis',(1.,0.,0.));
#455=DIRECTION('axis',(0.,0.,1.));
#456=DIRECTION('refdir',(1.,0.,0.));
#457=DIRECTION('center_axis',(0.,0.,1.));
#458=DIRECTION('ref_axis',(1.,0.,0.));
#459=DIRECTION('center_axis',(0.,0.,-1.));
#460=DIRECTION('ref_axis',(1.,0.,0.));
#461=DIRECTION('center_axis',(0.,0.,-1.));
#462=DIRECTION('ref_axis',(1.,0.,0.));
#463=DIRECTION('',(0.707106781186547,8.65956056235493E-17,-0.707106781186548));
#464=DIRECTION('center_axis',(0.,0.,1.));
#465=DIRECTION('ref_axis',(1.,0.,0.));
#466=DIRECTION('center_axis',(0.,0.,1.));
#467=DIRECTION('ref_axis',(1.,0.,0.));
#468=DIRECTION('center_axis',(0.,0.,1.));
#469=DIRECTION('ref_axis',(1.,0.,0.));
#470=DIRECTION('',(0.,0.,-1.));
#471=DIRECTION('center_axis',(0.,0.,1.));
#472=DIRECTION('ref_axis',(1.,0.,0.));
#473=DIRECTION('center_axis',(0.,0.,-1.));
#474=DIRECTION('ref_axis',(-1.,0.,0.));
#475=DIRECTION('center_axis',(0.,0.,-1.));
#476=DIRECTION('ref_axis',(-1.,0.,0.));
#477=DIRECTION('',(0.707106781186548,8.65956056235493E-17,-0.707106781186548));
#478=DIRECTION('center_axis',(0.,0.,1.));
#479=DIRECTION('ref_axis',(-1.,0.,0.));
#480=DIRECTION('center_axis',(0.,0.,1.));
#481=DIRECTION('ref_axis',(-1.,0.,0.));
#482=DIRECTION('',(0.,0.,-1.));
#483=DIRECTION('center_axis',(0.,0.,-1.));
#484=DIRECTION('ref_axis',(-1.,0.,0.));
#485=DIRECTION('center_axis',(0.,0.,1.));
#486=DIRECTION('ref_axis',(1.,0.,0.));
#487=DIRECTION('center_axis',(0.,0.,1.));
#488=DIRECTION('ref_axis',(1.,0.,0.));
#489=DIRECTION('center_axis',(0.,0.,-1.));
#490=DIRECTION('ref_axis',(-1.,0.,0.));
#491=DIRECTION('center_axis',(0.,0.,1.));
#492=DIRECTION('ref_axis',(-1.,0.,0.));
#493=DIRECTION('center_axis',(0.,0.,1.));
#494=DIRECTION('ref_axis',(-1.,0.,0.));
#495=DIRECTION('',(0.,0.,-1.));
#496=DIRECTION('center_axis',(0.,0.,1.));
#497=DIRECTION('ref_axis',(1.,0.,0.));
#498=DIRECTION('center_axis',(0.,0.,1.));
#499=DIRECTION('ref_axis',(1.,0.,0.));
#500=DIRECTION('center_axis',(0.,0.,1.));
#501=DIRECTION('ref_axis',(1.,0.,0.));
#502=DIRECTION('',(0.,0.,1.));
#503=DIRECTION('',(1.,0.,0.));
#504=DIRECTION('',(0.,0.,1.));
#505=DIRECTION('',(1.,0.,0.));
#506=CARTESIAN_POINT('',(0.,0.,0.));
#507=CARTESIAN_POINT('',(0.,0.,0.));
#508=CARTESIAN_POINT('Origin',(0.,0.,3.));
#509=CARTESIAN_POINT('',(4.,4.89858719658941E-16,3.));
#510=CARTESIAN_POINT('Origin',(0.,0.,3.));
#511=CARTESIAN_POINT('',(4.,4.89858719658941E-16,2.));
#512=CARTESIAN_POINT('',(4.,-4.89858719658941E-16,3.));
#513=CARTESIAN_POINT('Origin',(0.,0.,2.));
#514=CARTESIAN_POINT('Origin',(-9.14235935584316E-16,2.05596856412066E-16,
-2.));
#515=CARTESIAN_POINT('',(9.,1.10218211923262E-15,-2.));
#516=CARTESIAN_POINT('Origin',(0.,0.,-2.));
#517=CARTESIAN_POINT('Origin',(0.,0.,0.));
#518=CARTESIAN_POINT('',(9.,1.10218211923262E-15,2.));
#519=CARTESIAN_POINT('',(9.,1.10218211923262E-15,0.));
#520=CARTESIAN_POINT('Origin',(0.,0.,2.));
#521=CARTESIAN_POINT('Origin',(-9.14235935584316E-16,2.05596856412066E-16,
2.));
#522=CARTESIAN_POINT('Origin',(0.,0.,-2.5));
#523=CARTESIAN_POINT('',(10.5,1.28587913910472E-15,-3.));
#524=CARTESIAN_POINT('Origin',(0.,0.,-3.));
#525=CARTESIAN_POINT('',(11.,-1.34711147906209E-15,-2.5));
#526=CARTESIAN_POINT('Origin',(10.5,-1.28587913910472E-15,-2.5));
#527=CARTESIAN_POINT('Origin',(0.,0.,-2.5));
#528=CARTESIAN_POINT('Origin',(0.,0.,0.));
#529=CARTESIAN_POINT('',(11.,1.34711147906209E-15,2.5));
#530=CARTESIAN_POINT('',(-11.,-1.34711147906209E-15,2.5));
#531=CARTESIAN_POINT('Origin',(0.,0.,2.5));
#532=CARTESIAN_POINT('',(11.,1.34711147906209E-15,0.));
#533=CARTESIAN_POINT('Origin',(0.,0.,2.5));
#534=CARTESIAN_POINT('Origin',(-4.48690509505221E-16,0.,-3.));
#535=CARTESIAN_POINT('Origin',(0.,0.,2.5));
#536=CARTESIAN_POINT('',(10.5,-1.28587913910472E-15,3.));
#537=CARTESIAN_POINT('',(-10.5,-1.28587913910472E-15,3.));
#538=CARTESIAN_POINT('Origin',(0.,0.,3.));
#539=CARTESIAN_POINT('Origin',(-10.5,-1.28587913910472E-15,2.5));
#540=CARTESIAN_POINT('Origin',(0.,0.,3.));
#541=CARTESIAN_POINT('Origin',(-4.48690509505221E-16,0.,3.));
#542=CARTESIAN_POINT('Origin',(0.,0.,0.));
#543=CARTESIAN_POINT('Origin',(0.,0.,0.));
#544=CARTESIAN_POINT('Origin',(0.,0.,3.));
#545=CARTESIAN_POINT('',(0.,0.,0.));
#546=CARTESIAN_POINT('Origin',(0.,0.,2.575));
#547=CARTESIAN_POINT('',(2.5,0.,3.));
#548=CARTESIAN_POINT('',(-2.5,-3.06161699786838E-16,3.));
#549=CARTESIAN_POINT('Origin',(0.,0.,3.));
#550=CARTESIAN_POINT('Origin',(0.,0.,3.));
#551=CARTESIAN_POINT('',(-1.65,-2.02066721859313E-16,2.15));
#552=CARTESIAN_POINT('',(-2.075,-2.54114210823076E-16,2.575));
#553=CARTESIAN_POINT('',(1.65,0.,2.15));
#554=CARTESIAN_POINT('Origin',(0.,0.,2.15));
#555=CARTESIAN_POINT('Origin',(0.,0.,2.15));
#556=CARTESIAN_POINT('Origin',(0.,0.,-22.9422435421457));
#557=CARTESIAN_POINT('',(-1.65,-2.02066721859313E-16,-2.));
#558=CARTESIAN_POINT('',(-1.65,-2.02066721859313E-16,-22.9422435421457));
#559=CARTESIAN_POINT('Origin',(0.,0.,-2.));
#560=CARTESIAN_POINT('Origin',(0.,0.,2.9));
#561=CARTESIAN_POINT('',(3.8,-4.65365783675994E-16,3.));
#562=CARTESIAN_POINT('Origin',(0.,0.,3.));
#563=CARTESIAN_POINT('',(4.,4.89858719658941E-16,2.8));
#564=CARTESIAN_POINT('',(3.9,4.77612251667468E-16,2.9));
#565=CARTESIAN_POINT('Origin',(0.,0.,2.8));
#566=CARTESIAN_POINT('Origin',(0.,0.,2.));
#567=CARTESIAN_POINT('',(4.,4.89858719658941E-16,2.));
#568=CARTESIAN_POINT('',(4.,4.89858719658941E-16,2.));
#569=CARTESIAN_POINT('Origin',(0.,0.,2.));
#570=CARTESIAN_POINT('Origin',(-3.8776625516694E-16,-5.78241158658936E-17,
3.));
#571=CARTESIAN_POINT('Origin',(-5.03042222760184E-16,0.,-2.));
#572=CARTESIAN_POINT('',(9.,1.10218211923262E-15,-2.));
#573=CARTESIAN_POINT('Origin',(0.,0.,-2.));
#574=CARTESIAN_POINT('Origin',(0.,0.,0.));
#575=CARTESIAN_POINT('',(9.,1.10218211923262E-15,2.));
#576=CARTESIAN_POINT('Origin',(0.,0.,2.));
#577=CARTESIAN_POINT('',(9.,1.10218211923262E-15,0.));
#578=CARTESIAN_POINT('Origin',(-5.03042222760184E-16,0.,2.));
#579=CARTESIAN_POINT('Origin',(0.,0.,0.));
#580=CARTESIAN_POINT('Origin',(0.,0.,2.));
#581=CARTESIAN_POINT('',(0.,0.,0.));
#582=CARTESIAN_POINT('',(0.,0.,0.));
#583=UNCERTAINTY_MEASURE_WITH_UNIT(LENGTH_MEASURE(0.01),#591,
'DISTANCE_ACCURACY_VALUE',
'Maximum model space distance between geometric entities at asserted c
onnectivities');
#584=UNCERTAINTY_MEASURE_WITH_UNIT(LENGTH_MEASURE(0.01),#591,
'DISTANCE_ACCURACY_VALUE',
'Maximum model space distance between geometric entities at asserted c
onnectivities');
#585=UNCERTAINTY_MEASURE_WITH_UNIT(LENGTH_MEASURE(0.01),#591,
'DISTANCE_ACCURACY_VALUE',
'Maximum model space distance between geometric entities at asserted c
onnectivities');
#586=UNCERTAINTY_MEASURE_WITH_UNIT(LENGTH_MEASURE(0.01),#591,
'DISTANCE_ACCURACY_VALUE',
'Maximum model space distance between geometric entities at asserted c
onnectivities');
#587=(
GEOMETRIC_REPRESENTATION_CONTEXT(3)
GLOBAL_UNCERTAINTY_ASSIGNED_CONTEXT((#583))
GLOBAL_UNIT_ASSIGNED_CONTEXT((#591,#593,#594))
REPRESENTATION_CONTEXT('','3D')
);
#588=(
GEOMETRIC_REPRESENTATION_CONTEXT(3)
GLOBAL_UNCERTAINTY_ASSIGNED_CONTEXT((#584))
GLOBAL_UNIT_ASSIGNED_CONTEXT((#591,#593,#594))
REPRESENTATION_CONTEXT('','3D')
);
#589=(
GEOMETRIC_REPRESENTATION_CONTEXT(3)
GLOBAL_UNCERTAINTY_ASSIGNED_CONTEXT((#585))
GLOBAL_UNIT_ASSIGNED_CONTEXT((#591,#593,#594))
REPRESENTATION_CONTEXT('','3D')
);
#590=(
GEOMETRIC_REPRESENTATION_CONTEXT(3)
GLOBAL_UNCERTAINTY_ASSIGNED_CONTEXT((#586))
GLOBAL_UNIT_ASSIGNED_CONTEXT((#591,#593,#594))
REPRESENTATION_CONTEXT('','3D')
);
#591=(
LENGTH_UNIT()
NAMED_UNIT(*)
SI_UNIT(.MILLI.,.METRE.)
);
#592=(
LENGTH_UNIT()
NAMED_UNIT(*)
SI_UNIT(.CENTI.,.METRE.)
);
#593=(
NAMED_UNIT(*)
PLANE_ANGLE_UNIT()
SI_UNIT($,.RADIAN.)
);
#594=(
NAMED_UNIT(*)
SI_UNIT($,.STERADIAN.)
SOLID_ANGLE_UNIT()
);
#595=SHAPE_DEFINITION_REPRESENTATION(#598,#603);
#596=SHAPE_DEFINITION_REPRESENTATION(#599,#604);
#597=SHAPE_DEFINITION_REPRESENTATION(#600,#605);
#598=PRODUCT_DEFINITION_SHAPE('',$,#607);
#599=PRODUCT_DEFINITION_SHAPE('',$,#608);
#600=PRODUCT_DEFINITION_SHAPE('',$,#609);
#601=PRODUCT_DEFINITION_SHAPE($,$,#17);
#602=PRODUCT_DEFINITION_SHAPE($,$,#18);
#603=SHAPE_REPRESENTATION('',(#351,#398,#399),#587);
#604=SHAPE_REPRESENTATION('',(#352),#588);
#605=SHAPE_REPRESENTATION('',(#377),#589);
#606=PRODUCT_DEFINITION_CONTEXT('part definition',#617,'design');
#607=PRODUCT_DEFINITION('GM17482','GM17482',#610,#606);
#608=PRODUCT_DEFINITION('E0134703','E0134703',#611,#606);
#609=PRODUCT_DEFINITION('E0134704','E0134704',#612,#606);
#610=PRODUCT_DEFINITION_FORMATION('-',$,#619);
#611=PRODUCT_DEFINITION_FORMATION('-',$,#620);
#612=PRODUCT_DEFINITION_FORMATION('-',$,#621);
#613=PRODUCT_RELATED_PRODUCT_CATEGORY('GM17482','GM17482',(#619));
#614=PRODUCT_RELATED_PRODUCT_CATEGORY('E0134703','E0134703',(#620));
#615=PRODUCT_RELATED_PRODUCT_CATEGORY('E0134704','E0134704',(#621));
#616=APPLICATION_PROTOCOL_DEFINITION('international standard',
'ap242_managed_model_based_3d_engineering',2011,#617);
#617=APPLICATION_CONTEXT('Managed model based 3d engineering');
#618=PRODUCT_CONTEXT('part definition',#617,'mechanical');
#619=PRODUCT('GM17482','GM17482',$,(#618));
#620=PRODUCT('E0134703','E0134703',$,(#618));
#621=PRODUCT('E0134704','E0134704',$,(#618));
ENDSEC;
END-ISO-10303-21;
