ISO-10303-21;
HEADER;
/* Generated by software containing ST-Developer
 * from STEP Tools, Inc. (www.steptools.com) 
 */

FILE_DESCRIPTION(
/* description */ ('',
'CAx-IF Rec.Pracs.---Representation and Presentation of Product Manufa
cturing Information (PMI)---4.0---2014-10-13'),
/* implementation_level */ '2;1');

FILE_NAME(
/* name */ 
'C:\\Workspace\\Documents\\Products\\Handling\\Pot magnets\\GM17483\\G
M17483.stp',
/* time_stamp */ '2020-09-03T10:59:55+02:00',
/* author */ ('tm'),
/* organization */ (''),
/* preprocessor_version */ 'ST-DEVELOPER v17.2',
/* originating_system */ 'Autodesk Inventor 2019',
/* authorisation */ '');

FILE_SCHEMA (('AP242_MANAGED_MODEL_BASED_3D_ENGINEERING_MIM_LF { 1 0 10303 442 1 1 4 }'));
ENDSEC;

DATA;
#10=MECHANICAL_DESIGN_GEOMETRIC_PRESENTATION_REPRESENTATION('',(#35,#36,
#37,#38,#39,#40,#41,#42,#43,#44,#45,#46),#596);
#11=ITEM_DEFINED_TRANSFORMATION($,$,#354,#401);
#12=ITEM_DEFINED_TRANSFORMATION($,$,#379,#402);
#13=(
REPRESENTATION_RELATIONSHIP($,$,#610,#609)
REPRESENTATION_RELATIONSHIP_WITH_TRANSFORMATION(#11)
SHAPE_REPRESENTATION_RELATIONSHIP()
);
#14=(
REPRESENTATION_RELATIONSHIP($,$,#611,#609)
REPRESENTATION_RELATIONSHIP_WITH_TRANSFORMATION(#12)
SHAPE_REPRESENTATION_RELATIONSHIP()
);
#15=CONTEXT_DEPENDENT_SHAPE_REPRESENTATION(#13,#607);
#16=CONTEXT_DEPENDENT_SHAPE_REPRESENTATION(#14,#608);
#17=NEXT_ASSEMBLY_USAGE_OCCURRENCE('E0134875:1','E0134875:1',
'E0134875:1',#613,#614,'E0134875:1');
#18=NEXT_ASSEMBLY_USAGE_OCCURRENCE('E0134876:1','E0134876:1',
'E0134876:1',#613,#615,'E0134876:1');
#19=CONICAL_SURFACE('',#380,2.625,0.785398163397448);
#20=CONICAL_SURFACE('',#388,3.9,0.785398163397448);
#21=GEOMETRICALLY_BOUNDED_WIREFRAME_SHAPE_REPRESENTATION('',(#23,#24,#25),
#594);
#22=GEOMETRICALLY_BOUNDED_WIREFRAME_SHAPE_REPRESENTATION('',(#26,#27),#595);
#23=GEOMETRIC_CURVE_SET('Sketch3',(#131));
#24=GEOMETRIC_CURVE_SET('Sketch5',(#132));
#25=GEOMETRIC_CURVE_SET('Sketch6',(#133));
#26=GEOMETRIC_CURVE_SET('Sketch2',(#144));
#27=GEOMETRIC_CURVE_SET('Sketch3',(#145));
#28=SHAPE_REPRESENTATION_RELATIONSHIP('SRR','None',#610,#32);
#29=SHAPE_REPRESENTATION_RELATIONSHIP('SRR','None',#610,#21);
#30=SHAPE_REPRESENTATION_RELATIONSHIP('SRR','None',#611,#33);
#31=SHAPE_REPRESENTATION_RELATIONSHIP('SRR','None',#611,#22);
#32=ADVANCED_BREP_SHAPE_REPRESENTATION('',(#47),#594);
#33=ADVANCED_BREP_SHAPE_REPRESENTATION('',(#48),#595);
#34=INVISIBILITY((#36,#37,#38,#39,#40,#41,#43,#44,#45,#46));
#35=STYLED_ITEM('',(#305),#47);
#36=STYLED_ITEM('',(#306),#131);
#37=STYLED_ITEM('',(#306),#132);
#38=STYLED_ITEM('',(#306),#133);
#39=STYLED_ITEM('',(#307),#23);
#40=STYLED_ITEM('',(#308),#24);
#41=STYLED_ITEM('',(#309),#25);
#42=STYLED_ITEM('',(#310),#48);
#43=STYLED_ITEM('',(#306),#144);
#44=STYLED_ITEM('',(#306),#145);
#45=STYLED_ITEM('',(#311),#26);
#46=STYLED_ITEM('',(#312),#27);
#47=MANIFOLD_SOLID_BREP('Solid2',#280);
#48=MANIFOLD_SOLID_BREP('Solid2',#281);
#49=TOROIDAL_SURFACE('',#363,15.,0.5);
#50=TOROIDAL_SURFACE('',#371,15.,0.5);
#51=FACE_BOUND('',#85,.T.);
#52=FACE_BOUND('',#91,.T.);
#53=FACE_BOUND('',#98,.T.);
#54=FACE_BOUND('',#102,.T.);
#55=PLANE('',#358);
#56=PLANE('',#362);
#57=PLANE('',#370);
#58=PLANE('',#375);
#59=PLANE('',#385);
#60=PLANE('',#393);
#61=PLANE('',#394);
#62=PLANE('',#398);
#63=FACE_OUTER_BOUND('',#81,.T.);
#64=FACE_OUTER_BOUND('',#82,.T.);
#65=FACE_OUTER_BOUND('',#83,.T.);
#66=FACE_OUTER_BOUND('',#84,.T.);
#67=FACE_OUTER_BOUND('',#86,.T.);
#68=FACE_OUTER_BOUND('',#87,.T.);
#69=FACE_OUTER_BOUND('',#88,.T.);
#70=FACE_OUTER_BOUND('',#89,.T.);
#71=FACE_OUTER_BOUND('',#90,.T.);
#72=FACE_OUTER_BOUND('',#92,.T.);
#73=FACE_OUTER_BOUND('',#93,.T.);
#74=FACE_OUTER_BOUND('',#94,.T.);
#75=FACE_OUTER_BOUND('',#95,.T.);
#76=FACE_OUTER_BOUND('',#96,.T.);
#77=FACE_OUTER_BOUND('',#97,.T.);
#78=FACE_OUTER_BOUND('',#99,.T.);
#79=FACE_OUTER_BOUND('',#100,.T.);
#80=FACE_OUTER_BOUND('',#101,.T.);
#81=EDGE_LOOP('',(#196,#197,#198,#199));
#82=EDGE_LOOP('',(#200));
#83=EDGE_LOOP('',(#201,#202,#203,#204));
#84=EDGE_LOOP('',(#205));
#85=EDGE_LOOP('',(#206));
#86=EDGE_LOOP('',(#207,#208,#209,#210));
#87=EDGE_LOOP('',(#211,#212,#213,#214,#215));
#88=EDGE_LOOP('',(#216));
#89=EDGE_LOOP('',(#217,#218,#219,#220,#221,#222));
#90=EDGE_LOOP('',(#223,#224));
#91=EDGE_LOOP('',(#225));
#92=EDGE_LOOP('',(#226,#227,#228,#229,#230,#231));
#93=EDGE_LOOP('',(#232));
#94=EDGE_LOOP('',(#233,#234,#235,#236,#237));
#95=EDGE_LOOP('',(#238,#239,#240,#241));
#96=EDGE_LOOP('',(#242,#243,#244,#245));
#97=EDGE_LOOP('',(#246));
#98=EDGE_LOOP('',(#247,#248));
#99=EDGE_LOOP('',(#249));
#100=EDGE_LOOP('',(#250,#251,#252,#253));
#101=EDGE_LOOP('',(#254));
#102=EDGE_LOOP('',(#255));
#103=LINE('',#517,#111);
#104=LINE('',#524,#112);
#105=LINE('',#537,#113);
#106=LINE('',#557,#114);
#107=LINE('',#565,#115);
#108=LINE('',#570,#116);
#109=LINE('',#574,#117);
#110=LINE('',#583,#118);
#111=VECTOR('',#411,4.);
#112=VECTOR('',#420,13.5);
#113=VECTOR('',#437,15.5);
#114=VECTOR('',#466,2.625);
#115=VECTOR('',#477,1.65);
#116=VECTOR('',#482,3.9);
#117=VECTOR('',#487,4.);
#118=VECTOR('',#500,9.);
#119=CIRCLE('',#356,4.);
#120=CIRCLE('',#357,4.);
#121=CIRCLE('',#359,13.5);
#122=CIRCLE('',#361,13.5);
#123=CIRCLE('',#364,15.);
#124=CIRCLE('',#365,0.5);
#125=CIRCLE('',#366,15.5);
#126=CIRCLE('',#368,15.5);
#127=CIRCLE('',#369,15.5);
#128=CIRCLE('',#372,15.);
#129=CIRCLE('',#373,0.5);
#130=CIRCLE('',#374,15.);
#131=CIRCLE('',#376,15.5);
#132=CIRCLE('',#377,13.5);
#133=CIRCLE('',#378,4.);
#134=CIRCLE('',#381,3.6);
#135=CIRCLE('',#382,3.6);
#136=CIRCLE('',#383,1.65);
#137=CIRCLE('',#384,1.65);
#138=CIRCLE('',#386,1.65);
#139=CIRCLE('',#389,3.8);
#140=CIRCLE('',#390,4.);
#141=CIRCLE('',#392,4.);
#142=CIRCLE('',#395,9.);
#143=CIRCLE('',#397,9.);
#144=CIRCLE('',#399,9.);
#145=CIRCLE('',#400,4.);
#146=VERTEX_POINT('',#514);
#147=VERTEX_POINT('',#516);
#148=VERTEX_POINT('',#520);
#149=VERTEX_POINT('',#523);
#150=VERTEX_POINT('',#528);
#151=VERTEX_POINT('',#530);
#152=VERTEX_POINT('',#534);
#153=VERTEX_POINT('',#535);
#154=VERTEX_POINT('',#541);
#155=VERTEX_POINT('',#542);
#156=VERTEX_POINT('',#552);
#157=VERTEX_POINT('',#553);
#158=VERTEX_POINT('',#556);
#159=VERTEX_POINT('',#558);
#160=VERTEX_POINT('',#562);
#161=VERTEX_POINT('',#567);
#162=VERTEX_POINT('',#569);
#163=VERTEX_POINT('',#573);
#164=VERTEX_POINT('',#578);
#165=VERTEX_POINT('',#581);
#166=EDGE_CURVE('',#146,#146,#119,.T.);
#167=EDGE_CURVE('',#146,#147,#103,.T.);
#168=EDGE_CURVE('',#147,#147,#120,.T.);
#169=EDGE_CURVE('',#148,#148,#121,.T.);
#170=EDGE_CURVE('',#148,#149,#104,.T.);
#171=EDGE_CURVE('',#149,#149,#122,.T.);
#172=EDGE_CURVE('',#150,#150,#123,.T.);
#173=EDGE_CURVE('',#150,#151,#124,.T.);
#174=EDGE_CURVE('',#151,#151,#125,.T.);
#175=EDGE_CURVE('',#152,#153,#126,.T.);
#176=EDGE_CURVE('',#152,#151,#105,.T.);
#177=EDGE_CURVE('',#153,#152,#127,.T.);
#178=EDGE_CURVE('',#154,#155,#128,.T.);
#179=EDGE_CURVE('',#155,#153,#129,.T.);
#180=EDGE_CURVE('',#155,#154,#130,.T.);
#181=EDGE_CURVE('',#156,#157,#134,.T.);
#182=EDGE_CURVE('',#157,#156,#135,.T.);
#183=EDGE_CURVE('',#157,#158,#106,.T.);
#184=EDGE_CURVE('',#159,#158,#136,.T.);
#185=EDGE_CURVE('',#158,#159,#137,.T.);
#186=EDGE_CURVE('',#160,#160,#138,.T.);
#187=EDGE_CURVE('',#158,#160,#107,.T.);
#188=EDGE_CURVE('',#161,#161,#139,.T.);
#189=EDGE_CURVE('',#161,#162,#108,.T.);
#190=EDGE_CURVE('',#162,#162,#140,.T.);
#191=EDGE_CURVE('',#162,#163,#109,.T.);
#192=EDGE_CURVE('',#163,#163,#141,.T.);
#193=EDGE_CURVE('',#164,#164,#142,.T.);
#194=EDGE_CURVE('',#165,#165,#143,.T.);
#195=EDGE_CURVE('',#165,#164,#110,.T.);
#196=ORIENTED_EDGE('',*,*,#166,.F.);
#197=ORIENTED_EDGE('',*,*,#167,.T.);
#198=ORIENTED_EDGE('',*,*,#168,.F.);
#199=ORIENTED_EDGE('',*,*,#167,.F.);
#200=ORIENTED_EDGE('',*,*,#169,.F.);
#201=ORIENTED_EDGE('',*,*,#169,.T.);
#202=ORIENTED_EDGE('',*,*,#170,.T.);
#203=ORIENTED_EDGE('',*,*,#171,.T.);
#204=ORIENTED_EDGE('',*,*,#170,.F.);
#205=ORIENTED_EDGE('',*,*,#171,.F.);
#206=ORIENTED_EDGE('',*,*,#168,.T.);
#207=ORIENTED_EDGE('',*,*,#172,.T.);
#208=ORIENTED_EDGE('',*,*,#173,.T.);
#209=ORIENTED_EDGE('',*,*,#174,.T.);
#210=ORIENTED_EDGE('',*,*,#173,.F.);
#211=ORIENTED_EDGE('',*,*,#175,.F.);
#212=ORIENTED_EDGE('',*,*,#176,.T.);
#213=ORIENTED_EDGE('',*,*,#174,.F.);
#214=ORIENTED_EDGE('',*,*,#176,.F.);
#215=ORIENTED_EDGE('',*,*,#177,.F.);
#216=ORIENTED_EDGE('',*,*,#172,.F.);
#217=ORIENTED_EDGE('',*,*,#178,.T.);
#218=ORIENTED_EDGE('',*,*,#179,.T.);
#219=ORIENTED_EDGE('',*,*,#177,.T.);
#220=ORIENTED_EDGE('',*,*,#175,.T.);
#221=ORIENTED_EDGE('',*,*,#179,.F.);
#222=ORIENTED_EDGE('',*,*,#180,.T.);
#223=ORIENTED_EDGE('',*,*,#178,.F.);
#224=ORIENTED_EDGE('',*,*,#180,.F.);
#225=ORIENTED_EDGE('',*,*,#166,.T.);
#226=ORIENTED_EDGE('',*,*,#181,.F.);
#227=ORIENTED_EDGE('',*,*,#182,.F.);
#228=ORIENTED_EDGE('',*,*,#183,.T.);
#229=ORIENTED_EDGE('',*,*,#184,.F.);
#230=ORIENTED_EDGE('',*,*,#185,.F.);
#231=ORIENTED_EDGE('',*,*,#183,.F.);
#232=ORIENTED_EDGE('',*,*,#186,.F.);
#233=ORIENTED_EDGE('',*,*,#184,.T.);
#234=ORIENTED_EDGE('',*,*,#187,.T.);
#235=ORIENTED_EDGE('',*,*,#186,.T.);
#236=ORIENTED_EDGE('',*,*,#187,.F.);
#237=ORIENTED_EDGE('',*,*,#185,.T.);
#238=ORIENTED_EDGE('',*,*,#188,.T.);
#239=ORIENTED_EDGE('',*,*,#189,.T.);
#240=ORIENTED_EDGE('',*,*,#190,.T.);
#241=ORIENTED_EDGE('',*,*,#189,.F.);
#242=ORIENTED_EDGE('',*,*,#190,.F.);
#243=ORIENTED_EDGE('',*,*,#191,.T.);
#244=ORIENTED_EDGE('',*,*,#192,.F.);
#245=ORIENTED_EDGE('',*,*,#191,.F.);
#246=ORIENTED_EDGE('',*,*,#188,.F.);
#247=ORIENTED_EDGE('',*,*,#181,.T.);
#248=ORIENTED_EDGE('',*,*,#182,.T.);
#249=ORIENTED_EDGE('',*,*,#193,.T.);
#250=ORIENTED_EDGE('',*,*,#194,.F.);
#251=ORIENTED_EDGE('',*,*,#195,.T.);
#252=ORIENTED_EDGE('',*,*,#193,.F.);
#253=ORIENTED_EDGE('',*,*,#195,.F.);
#254=ORIENTED_EDGE('',*,*,#194,.T.);
#255=ORIENTED_EDGE('',*,*,#192,.T.);
#256=CYLINDRICAL_SURFACE('',#355,4.);
#257=CYLINDRICAL_SURFACE('',#360,13.5);
#258=CYLINDRICAL_SURFACE('',#367,15.5);
#259=CYLINDRICAL_SURFACE('',#387,1.65);
#260=CYLINDRICAL_SURFACE('',#391,4.);
#261=CYLINDRICAL_SURFACE('',#396,9.);
#262=ADVANCED_FACE('',(#63),#256,.F.);
#263=ADVANCED_FACE('',(#64),#55,.T.);
#264=ADVANCED_FACE('',(#65),#257,.F.);
#265=ADVANCED_FACE('',(#66,#51),#56,.F.);
#266=ADVANCED_FACE('',(#67),#49,.T.);
#267=ADVANCED_FACE('',(#68),#258,.T.);
#268=ADVANCED_FACE('',(#69),#57,.F.);
#269=ADVANCED_FACE('',(#70),#50,.T.);
#270=ADVANCED_FACE('',(#71,#52),#58,.T.);
#271=ADVANCED_FACE('',(#72),#19,.F.);
#272=ADVANCED_FACE('',(#73),#59,.T.);
#273=ADVANCED_FACE('',(#74),#259,.F.);
#274=ADVANCED_FACE('',(#75),#20,.T.);
#275=ADVANCED_FACE('',(#76),#260,.T.);
#276=ADVANCED_FACE('',(#77,#53),#60,.T.);
#277=ADVANCED_FACE('',(#78),#61,.F.);
#278=ADVANCED_FACE('',(#79),#261,.T.);
#279=ADVANCED_FACE('',(#80,#54),#62,.T.);
#280=CLOSED_SHELL('',(#262,#263,#264,#265,#266,#267,#268,#269,#270));
#281=CLOSED_SHELL('',(#271,#272,#273,#274,#275,#276,#277,#278,#279));
#282=DERIVED_UNIT_ELEMENT(#286,1.);
#283=DERIVED_UNIT_ELEMENT(#598,3.);
#284=DERIVED_UNIT_ELEMENT(#286,1.);
#285=DERIVED_UNIT_ELEMENT(#598,3.);
#286=(
MASS_UNIT()
NAMED_UNIT(*)
SI_UNIT($,.GRAM.)
);
#287=DERIVED_UNIT((#282,#283));
#288=DERIVED_UNIT((#284,#285));
#289=MEASURE_REPRESENTATION_ITEM('density measure',
POSITIVE_RATIO_MEASURE(1.425),#287);
#290=MEASURE_REPRESENTATION_ITEM('density measure',
POSITIVE_RATIO_MEASURE(8.03),#288);
#291=PROPERTY_DEFINITION_REPRESENTATION(#301,#295);
#292=PROPERTY_DEFINITION_REPRESENTATION(#302,#296);
#293=PROPERTY_DEFINITION_REPRESENTATION(#303,#297);
#294=PROPERTY_DEFINITION_REPRESENTATION(#304,#298);
#295=REPRESENTATION('material name',(#299),#594);
#296=REPRESENTATION('density',(#289),#594);
#297=REPRESENTATION('material name',(#300),#595);
#298=REPRESENTATION('density',(#290),#595);
#299=DESCRIPTIVE_REPRESENTATION_ITEM('_Plastic Rubber, Black',
'_Plastic Rubber, Black');
#300=DESCRIPTIVE_REPRESENTATION_ITEM('AISI 304','AISI 304');
#301=PROPERTY_DEFINITION('material property','material name',#614);
#302=PROPERTY_DEFINITION('material property','density of part',#614);
#303=PROPERTY_DEFINITION('material property','material name',#615);
#304=PROPERTY_DEFINITION('material property','density of part',#615);
#305=PRESENTATION_STYLE_ASSIGNMENT((#313));
#306=PRESENTATION_STYLE_ASSIGNMENT((#314));
#307=PRESENTATION_STYLE_ASSIGNMENT((NULL_STYLE(.NULL.)));
#308=PRESENTATION_STYLE_ASSIGNMENT((NULL_STYLE(.NULL.)));
#309=PRESENTATION_STYLE_ASSIGNMENT((NULL_STYLE(.NULL.)));
#310=PRESENTATION_STYLE_ASSIGNMENT((#315));
#311=PRESENTATION_STYLE_ASSIGNMENT((NULL_STYLE(.NULL.)));
#312=PRESENTATION_STYLE_ASSIGNMENT((NULL_STYLE(.NULL.)));
#313=SURFACE_STYLE_USAGE(.BOTH.,#320);
#314=SURFACE_STYLE_USAGE(.BOTH.,#321);
#315=SURFACE_STYLE_USAGE(.BOTH.,#322);
#316=SURFACE_STYLE_RENDERING_WITH_PROPERTIES($,#332,(#318));
#317=SURFACE_STYLE_RENDERING_WITH_PROPERTIES($,#334,(#319));
#318=SURFACE_STYLE_TRANSPARENT(0.);
#319=SURFACE_STYLE_TRANSPARENT(0.);
#320=SURFACE_SIDE_STYLE('',(#323,#316));
#321=SURFACE_SIDE_STYLE('',(#324));
#322=SURFACE_SIDE_STYLE('',(#325,#317));
#323=SURFACE_STYLE_FILL_AREA(#326);
#324=SURFACE_STYLE_FILL_AREA(#327);
#325=SURFACE_STYLE_FILL_AREA(#328);
#326=FILL_AREA_STYLE('',(#329));
#327=FILL_AREA_STYLE('',(#330));
#328=FILL_AREA_STYLE('',(#331));
#329=FILL_AREA_STYLE_COLOUR('',#332);
#330=FILL_AREA_STYLE_COLOUR('',#333);
#331=FILL_AREA_STYLE_COLOUR('',#334);
#332=COLOUR_RGB('',0.,0.,0.);
#333=COLOUR_RGB('',0.,0.250980392156863,0.501960784313725);
#334=COLOUR_RGB('',0.745098039215686,0.737254901960784,0.729411764705882);
#335=DATE_TIME_ROLE('creation_date');
#336=DATE_TIME_ROLE('creation_date');
#337=DATE_TIME_ROLE('creation_date');
#338=APPLIED_DATE_AND_TIME_ASSIGNMENT(#341,#335,(#613));
#339=APPLIED_DATE_AND_TIME_ASSIGNMENT(#342,#336,(#614));
#340=APPLIED_DATE_AND_TIME_ASSIGNMENT(#343,#337,(#615));
#341=DATE_AND_TIME(#344,#347);
#342=DATE_AND_TIME(#345,#348);
#343=DATE_AND_TIME(#346,#349);
#344=CALENDAR_DATE(2020,14,8);
#345=CALENDAR_DATE(2020,14,8);
#346=CALENDAR_DATE(2020,14,8);
#347=LOCAL_TIME(10,26,10.,#350);
#348=LOCAL_TIME(10,26,10.,#351);
#349=LOCAL_TIME(10,26,9.,#352);
#350=COORDINATED_UNIVERSAL_TIME_OFFSET(0,0,.BEHIND.);
#351=COORDINATED_UNIVERSAL_TIME_OFFSET(0,0,.BEHIND.);
#352=COORDINATED_UNIVERSAL_TIME_OFFSET(0,0,.BEHIND.);
#353=AXIS2_PLACEMENT_3D('placement',#511,#403,#404);
#354=AXIS2_PLACEMENT_3D('placement',#512,#405,#406);
#355=AXIS2_PLACEMENT_3D('',#513,#407,#408);
#356=AXIS2_PLACEMENT_3D('',#515,#409,#410);
#357=AXIS2_PLACEMENT_3D('',#518,#412,#413);
#358=AXIS2_PLACEMENT_3D('',#519,#414,#415);
#359=AXIS2_PLACEMENT_3D('',#521,#416,#417);
#360=AXIS2_PLACEMENT_3D('',#522,#418,#419);
#361=AXIS2_PLACEMENT_3D('',#525,#421,#422);
#362=AXIS2_PLACEMENT_3D('',#526,#423,#424);
#363=AXIS2_PLACEMENT_3D('',#527,#425,#426);
#364=AXIS2_PLACEMENT_3D('',#529,#427,#428);
#365=AXIS2_PLACEMENT_3D('',#531,#429,#430);
#366=AXIS2_PLACEMENT_3D('',#532,#431,#432);
#367=AXIS2_PLACEMENT_3D('',#533,#433,#434);
#368=AXIS2_PLACEMENT_3D('',#536,#435,#436);
#369=AXIS2_PLACEMENT_3D('',#538,#438,#439);
#370=AXIS2_PLACEMENT_3D('',#539,#440,#441);
#371=AXIS2_PLACEMENT_3D('',#540,#442,#443);
#372=AXIS2_PLACEMENT_3D('',#543,#444,#445);
#373=AXIS2_PLACEMENT_3D('',#544,#446,#447);
#374=AXIS2_PLACEMENT_3D('',#545,#448,#449);
#375=AXIS2_PLACEMENT_3D('',#546,#450,#451);
#376=AXIS2_PLACEMENT_3D('',#547,#452,#453);
#377=AXIS2_PLACEMENT_3D('',#548,#454,#455);
#378=AXIS2_PLACEMENT_3D('',#549,#456,#457);
#379=AXIS2_PLACEMENT_3D('placement',#550,#458,#459);
#380=AXIS2_PLACEMENT_3D('',#551,#460,#461);
#381=AXIS2_PLACEMENT_3D('',#554,#462,#463);
#382=AXIS2_PLACEMENT_3D('',#555,#464,#465);
#383=AXIS2_PLACEMENT_3D('',#559,#467,#468);
#384=AXIS2_PLACEMENT_3D('',#560,#469,#470);
#385=AXIS2_PLACEMENT_3D('',#561,#471,#472);
#386=AXIS2_PLACEMENT_3D('',#563,#473,#474);
#387=AXIS2_PLACEMENT_3D('',#564,#475,#476);
#388=AXIS2_PLACEMENT_3D('',#566,#478,#479);
#389=AXIS2_PLACEMENT_3D('',#568,#480,#481);
#390=AXIS2_PLACEMENT_3D('',#571,#483,#484);
#391=AXIS2_PLACEMENT_3D('',#572,#485,#486);
#392=AXIS2_PLACEMENT_3D('',#575,#488,#489);
#393=AXIS2_PLACEMENT_3D('',#576,#490,#491);
#394=AXIS2_PLACEMENT_3D('',#577,#492,#493);
#395=AXIS2_PLACEMENT_3D('',#579,#494,#495);
#396=AXIS2_PLACEMENT_3D('',#580,#496,#497);
#397=AXIS2_PLACEMENT_3D('',#582,#498,#499);
#398=AXIS2_PLACEMENT_3D('',#584,#501,#502);
#399=AXIS2_PLACEMENT_3D('',#585,#503,#504);
#400=AXIS2_PLACEMENT_3D('',#586,#505,#506);
#401=AXIS2_PLACEMENT_3D('',#587,#507,#508);
#402=AXIS2_PLACEMENT_3D('',#588,#509,#510);
#403=DIRECTION('axis',(0.,0.,1.));
#404=DIRECTION('refdir',(1.,0.,0.));
#405=DIRECTION('axis',(0.,0.,1.));
#406=DIRECTION('refdir',(1.,0.,0.));
#407=DIRECTION('center_axis',(0.,0.,-1.));
#408=DIRECTION('ref_axis',(-1.,0.,0.));
#409=DIRECTION('center_axis',(0.,0.,-1.));
#410=DIRECTION('ref_axis',(-1.,0.,0.));
#411=DIRECTION('',(0.,0.,-1.));
#412=DIRECTION('center_axis',(0.,0.,1.));
#413=DIRECTION('ref_axis',(-1.,0.,0.));
#414=DIRECTION('center_axis',(0.,0.,1.));
#415=DIRECTION('ref_axis',(1.,0.,0.));
#416=DIRECTION('center_axis',(0.,0.,-1.));
#417=DIRECTION('ref_axis',(-1.,0.,0.));
#418=DIRECTION('center_axis',(0.,0.,1.));
#419=DIRECTION('ref_axis',(-1.,0.,0.));
#420=DIRECTION('',(0.,0.,1.));
#421=DIRECTION('center_axis',(0.,0.,1.));
#422=DIRECTION('ref_axis',(-1.,0.,0.));
#423=DIRECTION('center_axis',(0.,0.,1.));
#424=DIRECTION('ref_axis',(1.,0.,0.));
#425=DIRECTION('center_axis',(0.,0.,-1.));
#426=DIRECTION('ref_axis',(-1.,0.,0.));
#427=DIRECTION('center_axis',(0.,0.,1.));
#428=DIRECTION('ref_axis',(-1.,0.,0.));
#429=DIRECTION('center_axis',(-1.22464679914735E-16,-1.,0.));
#430=DIRECTION('ref_axis',(1.,-1.22464679914735E-16,0.));
#431=DIRECTION('center_axis',(0.,0.,-1.));
#432=DIRECTION('ref_axis',(-1.,0.,0.));
#433=DIRECTION('center_axis',(0.,0.,1.));
#434=DIRECTION('ref_axis',(-1.,0.,0.));
#435=DIRECTION('center_axis',(0.,0.,1.));
#436=DIRECTION('ref_axis',(-1.,0.,0.));
#437=DIRECTION('',(0.,0.,-1.));
#438=DIRECTION('center_axis',(0.,0.,1.));
#439=DIRECTION('ref_axis',(-1.,0.,0.));
#440=DIRECTION('center_axis',(0.,0.,1.));
#441=DIRECTION('ref_axis',(1.,0.,0.));
#442=DIRECTION('center_axis',(0.,0.,1.));
#443=DIRECTION('ref_axis',(1.,0.,0.));
#444=DIRECTION('center_axis',(0.,0.,-1.));
#445=DIRECTION('ref_axis',(-1.,0.,0.));
#446=DIRECTION('center_axis',(1.22464679914735E-16,-1.,0.));
#447=DIRECTION('ref_axis',(-1.,-1.22464679914735E-16,0.));
#448=DIRECTION('center_axis',(0.,0.,-1.));
#449=DIRECTION('ref_axis',(-1.,0.,0.));
#450=DIRECTION('center_axis',(0.,0.,1.));
#451=DIRECTION('ref_axis',(1.,0.,0.));
#452=DIRECTION('center_axis',(0.,0.,1.));
#453=DIRECTION('ref_axis',(1.,0.,0.));
#454=DIRECTION('center_axis',(0.,0.,1.));
#455=DIRECTION('ref_axis',(1.,0.,0.));
#456=DIRECTION('center_axis',(0.,0.,1.));
#457=DIRECTION('ref_axis',(1.,0.,0.));
#458=DIRECTION('axis',(0.,0.,1.));
#459=DIRECTION('refdir',(1.,0.,0.));
#460=DIRECTION('center_axis',(0.,0.,1.));
#461=DIRECTION('ref_axis',(1.,0.,0.));
#462=DIRECTION('center_axis',(0.,0.,-1.));
#463=DIRECTION('ref_axis',(1.,0.,0.));
#464=DIRECTION('center_axis',(0.,0.,-1.));
#465=DIRECTION('ref_axis',(1.,0.,0.));
#466=DIRECTION('',(0.707106781186547,8.65956056235493E-17,-0.707106781186548));
#467=DIRECTION('center_axis',(0.,0.,1.));
#468=DIRECTION('ref_axis',(1.,0.,0.));
#469=DIRECTION('center_axis',(0.,0.,1.));
#470=DIRECTION('ref_axis',(1.,0.,0.));
#471=DIRECTION('center_axis',(0.,0.,1.));
#472=DIRECTION('ref_axis',(1.,0.,0.));
#473=DIRECTION('center_axis',(0.,0.,-1.));
#474=DIRECTION('ref_axis',(1.,0.,0.));
#475=DIRECTION('center_axis',(0.,0.,1.));
#476=DIRECTION('ref_axis',(1.,0.,0.));
#477=DIRECTION('',(0.,0.,-1.));
#478=DIRECTION('center_axis',(0.,0.,-1.));
#479=DIRECTION('ref_axis',(-1.,0.,0.));
#480=DIRECTION('center_axis',(0.,0.,-1.));
#481=DIRECTION('ref_axis',(-1.,0.,0.));
#482=DIRECTION('',(0.707106781186548,8.65956056235493E-17,-0.707106781186548));
#483=DIRECTION('center_axis',(0.,0.,1.));
#484=DIRECTION('ref_axis',(-1.,0.,0.));
#485=DIRECTION('center_axis',(0.,0.,1.));
#486=DIRECTION('ref_axis',(-1.,0.,0.));
#487=DIRECTION('',(0.,0.,-1.));
#488=DIRECTION('center_axis',(0.,0.,-1.));
#489=DIRECTION('ref_axis',(-1.,0.,0.));
#490=DIRECTION('center_axis',(0.,0.,1.));
#491=DIRECTION('ref_axis',(1.,0.,0.));
#492=DIRECTION('center_axis',(0.,0.,1.));
#493=DIRECTION('ref_axis',(1.,0.,0.));
#494=DIRECTION('center_axis',(0.,0.,-1.));
#495=DIRECTION('ref_axis',(-1.,0.,0.));
#496=DIRECTION('center_axis',(0.,0.,1.));
#497=DIRECTION('ref_axis',(-1.,0.,0.));
#498=DIRECTION('center_axis',(0.,0.,1.));
#499=DIRECTION('ref_axis',(-1.,0.,0.));
#500=DIRECTION('',(0.,0.,-1.));
#501=DIRECTION('center_axis',(0.,0.,1.));
#502=DIRECTION('ref_axis',(1.,0.,0.));
#503=DIRECTION('center_axis',(0.,0.,1.));
#504=DIRECTION('ref_axis',(1.,0.,0.));
#505=DIRECTION('center_axis',(0.,0.,1.));
#506=DIRECTION('ref_axis',(1.,0.,0.));
#507=DIRECTION('',(0.,0.,1.));
#508=DIRECTION('',(1.,0.,0.));
#509=DIRECTION('',(0.,0.,1.));
#510=DIRECTION('',(1.,0.,0.));
#511=CARTESIAN_POINT('',(0.,0.,0.));
#512=CARTESIAN_POINT('',(0.,0.,0.));
#513=CARTESIAN_POINT('Origin',(0.,0.,3.));
#514=CARTESIAN_POINT('',(4.,4.89858719658941E-16,3.));
#515=CARTESIAN_POINT('Origin',(0.,0.,3.));
#516=CARTESIAN_POINT('',(4.,4.89858719658941E-16,2.));
#517=CARTESIAN_POINT('',(4.,-4.89858719658941E-16,3.));
#518=CARTESIAN_POINT('Origin',(0.,0.,2.));
#519=CARTESIAN_POINT('Origin',(-1.37772764904077E-16,0.,-2.));
#520=CARTESIAN_POINT('',(13.5,1.65327317884893E-15,-2.));
#521=CARTESIAN_POINT('Origin',(0.,0.,-2.));
#522=CARTESIAN_POINT('Origin',(0.,0.,0.));
#523=CARTESIAN_POINT('',(13.5,1.65327317884893E-15,2.));
#524=CARTESIAN_POINT('',(13.5,1.65327317884893E-15,0.));
#525=CARTESIAN_POINT('Origin',(0.,0.,2.));
#526=CARTESIAN_POINT('Origin',(-1.37772764904077E-16,0.,2.));
#527=CARTESIAN_POINT('Origin',(0.,0.,-2.5));
#528=CARTESIAN_POINT('',(15.,1.83697019872103E-15,-3.));
#529=CARTESIAN_POINT('Origin',(0.,0.,-3.));
#530=CARTESIAN_POINT('',(15.5,-1.8982025386784E-15,-2.5));
#531=CARTESIAN_POINT('Origin',(15.,-1.83697019872103E-15,-2.5));
#532=CARTESIAN_POINT('Origin',(0.,0.,-2.5));
#533=CARTESIAN_POINT('Origin',(0.,0.,0.));
#534=CARTESIAN_POINT('',(15.5,1.8982025386784E-15,2.5));
#535=CARTESIAN_POINT('',(-15.5,-1.8982025386784E-15,2.5));
#536=CARTESIAN_POINT('Origin',(0.,0.,2.5));
#537=CARTESIAN_POINT('',(15.5,1.8982025386784E-15,0.));
#538=CARTESIAN_POINT('Origin',(0.,0.,2.5));
#539=CARTESIAN_POINT('Origin',(-1.11321410370721E-15,0.,-3.));
#540=CARTESIAN_POINT('Origin',(0.,0.,2.5));
#541=CARTESIAN_POINT('',(15.,-1.83697019872103E-15,3.));
#542=CARTESIAN_POINT('',(-15.,-1.83697019872103E-15,3.));
#543=CARTESIAN_POINT('Origin',(0.,0.,3.));
#544=CARTESIAN_POINT('Origin',(-15.,-1.83697019872103E-15,2.5));
#545=CARTESIAN_POINT('Origin',(0.,0.,3.));
#546=CARTESIAN_POINT('Origin',(-1.11321410370721E-15,0.,3.));
#547=CARTESIAN_POINT('Origin',(0.,0.,0.));
#548=CARTESIAN_POINT('Origin',(0.,0.,0.));
#549=CARTESIAN_POINT('Origin',(0.,0.,3.));
#550=CARTESIAN_POINT('',(0.,0.,0.));
#551=CARTESIAN_POINT('Origin',(0.,0.,7.525));
#552=CARTESIAN_POINT('',(3.6,0.,8.5));
#553=CARTESIAN_POINT('',(-3.6,-4.40872847693047E-16,8.5));
#554=CARTESIAN_POINT('Origin',(0.,0.,8.5));
#555=CARTESIAN_POINT('Origin',(0.,0.,8.5));
#556=CARTESIAN_POINT('',(-1.65,-2.02066721859313E-16,6.55));
#557=CARTESIAN_POINT('',(-2.625,-3.2146978477618E-16,7.525));
#558=CARTESIAN_POINT('',(1.65,0.,6.55));
#559=CARTESIAN_POINT('Origin',(0.,0.,6.55));
#560=CARTESIAN_POINT('Origin',(0.,0.,6.55));
#561=CARTESIAN_POINT('Origin',(0.,0.,2.));
#562=CARTESIAN_POINT('',(-1.65,2.02066721859313E-16,2.));
#563=CARTESIAN_POINT('Origin',(0.,0.,2.));
#564=CARTESIAN_POINT('Origin',(0.,0.,-19.0363396260287));
#565=CARTESIAN_POINT('',(-1.65,-2.02066721859313E-16,-19.0363396260287));
#566=CARTESIAN_POINT('Origin',(0.,0.,8.4));
#567=CARTESIAN_POINT('',(3.8,-4.65365783675994E-16,8.5));
#568=CARTESIAN_POINT('Origin',(0.,0.,8.5));
#569=CARTESIAN_POINT('',(4.,4.89858719658941E-16,8.3));
#570=CARTESIAN_POINT('',(3.9,4.77612251667468E-16,8.4));
#571=CARTESIAN_POINT('Origin',(0.,0.,8.3));
#572=CARTESIAN_POINT('Origin',(0.,0.,2.));
#573=CARTESIAN_POINT('',(4.,4.89858719658941E-16,2.));
#574=CARTESIAN_POINT('',(4.,4.89858719658941E-16,2.));
#575=CARTESIAN_POINT('Origin',(0.,0.,2.));
#576=CARTESIAN_POINT('Origin',(-3.8776625516694E-16,-5.78241158658936E-17,
8.5));
#577=CARTESIAN_POINT('Origin',(-5.03042222760184E-16,0.,-2.));
#578=CARTESIAN_POINT('',(9.,1.10218211923262E-15,-2.));
#579=CARTESIAN_POINT('Origin',(0.,0.,-2.));
#580=CARTESIAN_POINT('Origin',(0.,0.,0.));
#581=CARTESIAN_POINT('',(9.,1.10218211923262E-15,2.));
#582=CARTESIAN_POINT('Origin',(0.,0.,2.));
#583=CARTESIAN_POINT('',(9.,1.10218211923262E-15,0.));
#584=CARTESIAN_POINT('Origin',(-5.03042222760184E-16,0.,2.));
#585=CARTESIAN_POINT('Origin',(0.,0.,0.));
#586=CARTESIAN_POINT('Origin',(0.,0.,2.));
#587=CARTESIAN_POINT('',(0.,0.,0.));
#588=CARTESIAN_POINT('',(0.,0.,0.));
#589=UNCERTAINTY_MEASURE_WITH_UNIT(LENGTH_MEASURE(0.01),#597,
'DISTANCE_ACCURACY_VALUE',
'Maximum model space distance between geometric entities at asserted c
onnectivities');
#590=UNCERTAINTY_MEASURE_WITH_UNIT(LENGTH_MEASURE(0.01),#597,
'DISTANCE_ACCURACY_VALUE',
'Maximum model space distance between geometric entities at asserted c
onnectivities');
#591=UNCERTAINTY_MEASURE_WITH_UNIT(LENGTH_MEASURE(0.01),#597,
'DISTANCE_ACCURACY_VALUE',
'Maximum model space distance between geometric entities at asserted c
onnectivities');
#592=UNCERTAINTY_MEASURE_WITH_UNIT(LENGTH_MEASURE(0.01),#597,
'DISTANCE_ACCURACY_VALUE',
'Maximum model space distance between geometric entities at asserted c
onnectivities');
#593=(
GEOMETRIC_REPRESENTATION_CONTEXT(3)
GLOBAL_UNCERTAINTY_ASSIGNED_CONTEXT((#589))
GLOBAL_UNIT_ASSIGNED_CONTEXT((#597,#599,#600))
REPRESENTATION_CONTEXT('','3D')
);
#594=(
GEOMETRIC_REPRESENTATION_CONTEXT(3)
GLOBAL_UNCERTAINTY_ASSIGNED_CONTEXT((#590))
GLOBAL_UNIT_ASSIGNED_CONTEXT((#597,#599,#600))
REPRESENTATION_CONTEXT('','3D')
);
#595=(
GEOMETRIC_REPRESENTATION_CONTEXT(3)
GLOBAL_UNCERTAINTY_ASSIGNED_CONTEXT((#591))
GLOBAL_UNIT_ASSIGNED_CONTEXT((#597,#599,#600))
REPRESENTATION_CONTEXT('','3D')
);
#596=(
GEOMETRIC_REPRESENTATION_CONTEXT(3)
GLOBAL_UNCERTAINTY_ASSIGNED_CONTEXT((#592))
GLOBAL_UNIT_ASSIGNED_CONTEXT((#597,#599,#600))
REPRESENTATION_CONTEXT('','3D')
);
#597=(
LENGTH_UNIT()
NAMED_UNIT(*)
SI_UNIT(.MILLI.,.METRE.)
);
#598=(
LENGTH_UNIT()
NAMED_UNIT(*)
SI_UNIT(.CENTI.,.METRE.)
);
#599=(
NAMED_UNIT(*)
PLANE_ANGLE_UNIT()
SI_UNIT($,.RADIAN.)
);
#600=(
NAMED_UNIT(*)
SI_UNIT($,.STERADIAN.)
SOLID_ANGLE_UNIT()
);
#601=SHAPE_DEFINITION_REPRESENTATION(#604,#609);
#602=SHAPE_DEFINITION_REPRESENTATION(#605,#610);
#603=SHAPE_DEFINITION_REPRESENTATION(#606,#611);
#604=PRODUCT_DEFINITION_SHAPE('',$,#613);
#605=PRODUCT_DEFINITION_SHAPE('',$,#614);
#606=PRODUCT_DEFINITION_SHAPE('',$,#615);
#607=PRODUCT_DEFINITION_SHAPE($,$,#17);
#608=PRODUCT_DEFINITION_SHAPE($,$,#18);
#609=SHAPE_REPRESENTATION('',(#353,#401,#402),#593);
#610=SHAPE_REPRESENTATION('',(#354),#594);
#611=SHAPE_REPRESENTATION('',(#379),#595);
#612=PRODUCT_DEFINITION_CONTEXT('part definition',#623,'design');
#613=PRODUCT_DEFINITION('GM17483','GM17483',#616,#612);
#614=PRODUCT_DEFINITION('E0134875','E0134875',#617,#612);
#615=PRODUCT_DEFINITION('E0134876','E0134876',#618,#612);
#616=PRODUCT_DEFINITION_FORMATION('-',$,#625);
#617=PRODUCT_DEFINITION_FORMATION('-',$,#626);
#618=PRODUCT_DEFINITION_FORMATION('-',$,#627);
#619=PRODUCT_RELATED_PRODUCT_CATEGORY('GM17483','GM17483',(#625));
#620=PRODUCT_RELATED_PRODUCT_CATEGORY('E0134875','E0134875',(#626));
#621=PRODUCT_RELATED_PRODUCT_CATEGORY('E0134876','E0134876',(#627));
#622=APPLICATION_PROTOCOL_DEFINITION('international standard',
'ap242_managed_model_based_3d_engineering',2011,#623);
#623=APPLICATION_CONTEXT('Managed model based 3d engineering');
#624=PRODUCT_CONTEXT('part definition',#623,'mechanical');
#625=PRODUCT('GM17483','GM17483',$,(#624));
#626=PRODUCT('E0134875','E0134875',$,(#624));
#627=PRODUCT('E0134876','E0134876',$,(#624));
ENDSEC;
END-ISO-10303-21;
