ISO-10303-21;
HEADER;
/* Generated by software containing ST-Developer
 * from STEP Tools, Inc. (www.steptools.com) 
 */

FILE_DESCRIPTION(
/* description */ (''),
/* implementation_level */ '2;1');

FILE_NAME(
/* name */ 'C:\\TEMP\\GM17485.stp',
/* time_stamp */ '2022-10-11T15:28:20+02:00',
/* author */ ('rm'),
/* organization */ (''),
/* preprocessor_version */ 'ST-DEVELOPER v18.1',
/* originating_system */ 'Autodesk Inventor 2021',
/* authorisation */ '');

FILE_SCHEMA (('CONFIG_CONTROL_DESIGN'));
ENDSEC;

DATA;
#10=MECHANICAL_DESIGN_GEOMETRIC_PRESENTATION_REPRESENTATION('',(#25,#26),
#503);
#11=ITEM_DEFINED_TRANSFORMATION($,$,#300,#338);
#12=ITEM_DEFINED_TRANSFORMATION($,$,#321,#339);
#13=(
REPRESENTATION_RELATIONSHIP($,$,#517,#516)
REPRESENTATION_RELATIONSHIP_WITH_TRANSFORMATION(#11)
SHAPE_REPRESENTATION_RELATIONSHIP()
);
#14=(
REPRESENTATION_RELATIONSHIP($,$,#518,#516)
REPRESENTATION_RELATIONSHIP_WITH_TRANSFORMATION(#12)
SHAPE_REPRESENTATION_RELATIONSHIP()
);
#15=CONTEXT_DEPENDENT_SHAPE_REPRESENTATION(#13,#514);
#16=CONTEXT_DEPENDENT_SHAPE_REPRESENTATION(#14,#515);
#17=NEXT_ASSEMBLY_USAGE_OCCURRENCE('E0134765:1','E0134765:1',
'E0134765:1',#520,#521,'E0134765:1');
#18=NEXT_ASSEMBLY_USAGE_OCCURRENCE('E0134766:1','E0134766:1',
'E0134766:1',#520,#522,'E0134766:1');
#19=CONICAL_SURFACE('',#322,2.55,0.785398163397448);
#20=CONICAL_SURFACE('',#327,3.9,0.785398163397448);
#21=SHAPE_REPRESENTATION_RELATIONSHIP('SRR','None',#517,#23);
#22=SHAPE_REPRESENTATION_RELATIONSHIP('SRR','None',#518,#24);
#23=ADVANCED_BREP_SHAPE_REPRESENTATION('',(#27),#501);
#24=ADVANCED_BREP_SHAPE_REPRESENTATION('',(#28),#502);
#25=STYLED_ITEM('',(#263),#27);
#26=STYLED_ITEM('',(#264),#28);
#27=MANIFOLD_SOLID_BREP('Solid2',#238);
#28=MANIFOLD_SOLID_BREP('Solid2',#239);
#29=TOROIDAL_SURFACE('',#309,15.,0.5);
#30=TOROIDAL_SURFACE('',#317,15.,0.5);
#31=FACE_BOUND('',#64,.T.);
#32=FACE_BOUND('',#70,.T.);
#33=FACE_BOUND('',#76,.T.);
#34=FACE_BOUND('',#78,.T.);
#35=FACE_BOUND('',#81,.T.);
#36=PLANE('',#304);
#37=PLANE('',#308);
#38=PLANE('',#316);
#39=PLANE('',#320);
#40=PLANE('',#332);
#41=PLANE('',#333);
#42=PLANE('',#337);
#43=FACE_OUTER_BOUND('',#60,.T.);
#44=FACE_OUTER_BOUND('',#61,.T.);
#45=FACE_OUTER_BOUND('',#62,.T.);
#46=FACE_OUTER_BOUND('',#63,.T.);
#47=FACE_OUTER_BOUND('',#65,.T.);
#48=FACE_OUTER_BOUND('',#66,.T.);
#49=FACE_OUTER_BOUND('',#67,.T.);
#50=FACE_OUTER_BOUND('',#68,.T.);
#51=FACE_OUTER_BOUND('',#69,.T.);
#52=FACE_OUTER_BOUND('',#71,.T.);
#53=FACE_OUTER_BOUND('',#72,.T.);
#54=FACE_OUTER_BOUND('',#73,.T.);
#55=FACE_OUTER_BOUND('',#74,.T.);
#56=FACE_OUTER_BOUND('',#75,.T.);
#57=FACE_OUTER_BOUND('',#77,.T.);
#58=FACE_OUTER_BOUND('',#79,.T.);
#59=FACE_OUTER_BOUND('',#80,.T.);
#60=EDGE_LOOP('',(#161,#162,#163,#164));
#61=EDGE_LOOP('',(#165));
#62=EDGE_LOOP('',(#166,#167,#168,#169));
#63=EDGE_LOOP('',(#170));
#64=EDGE_LOOP('',(#171));
#65=EDGE_LOOP('',(#172,#173,#174,#175));
#66=EDGE_LOOP('',(#176,#177,#178,#179,#180));
#67=EDGE_LOOP('',(#181));
#68=EDGE_LOOP('',(#182,#183,#184,#185,#186));
#69=EDGE_LOOP('',(#187));
#70=EDGE_LOOP('',(#188));
#71=EDGE_LOOP('',(#189,#190,#191,#192));
#72=EDGE_LOOP('',(#193,#194,#195,#196));
#73=EDGE_LOOP('',(#197,#198,#199,#200));
#74=EDGE_LOOP('',(#201,#202,#203,#204));
#75=EDGE_LOOP('',(#205));
#76=EDGE_LOOP('',(#206));
#77=EDGE_LOOP('',(#207));
#78=EDGE_LOOP('',(#208));
#79=EDGE_LOOP('',(#209,#210,#211,#212));
#80=EDGE_LOOP('',(#213));
#81=EDGE_LOOP('',(#214));
#82=LINE('',#436,#90);
#83=LINE('',#443,#91);
#84=LINE('',#456,#92);
#85=LINE('',#469,#93);
#86=LINE('',#473,#94);
#87=LINE('',#479,#95);
#88=LINE('',#483,#96);
#89=LINE('',#492,#97);
#90=VECTOR('',#348,4.);
#91=VECTOR('',#357,13.5);
#92=VECTOR('',#374,15.5);
#93=VECTOR('',#393,2.55);
#94=VECTOR('',#398,2.1);
#95=VECTOR('',#405,3.9);
#96=VECTOR('',#410,4.);
#97=VECTOR('',#423,9.);
#98=CIRCLE('',#302,4.);
#99=CIRCLE('',#303,4.);
#100=CIRCLE('',#305,13.5);
#101=CIRCLE('',#307,13.5);
#102=CIRCLE('',#310,15.);
#103=CIRCLE('',#311,0.5);
#104=CIRCLE('',#312,15.5);
#105=CIRCLE('',#314,15.5);
#106=CIRCLE('',#315,15.5);
#107=CIRCLE('',#318,15.);
#108=CIRCLE('',#319,0.5);
#109=CIRCLE('',#323,3.);
#110=CIRCLE('',#324,2.1);
#111=CIRCLE('',#326,2.1);
#112=CIRCLE('',#328,3.8);
#113=CIRCLE('',#329,4.);
#114=CIRCLE('',#331,4.);
#115=CIRCLE('',#334,9.);
#116=CIRCLE('',#336,9.);
#117=VERTEX_POINT('',#433);
#118=VERTEX_POINT('',#435);
#119=VERTEX_POINT('',#439);
#120=VERTEX_POINT('',#442);
#121=VERTEX_POINT('',#447);
#122=VERTEX_POINT('',#449);
#123=VERTEX_POINT('',#453);
#124=VERTEX_POINT('',#454);
#125=VERTEX_POINT('',#460);
#126=VERTEX_POINT('',#466);
#127=VERTEX_POINT('',#468);
#128=VERTEX_POINT('',#472);
#129=VERTEX_POINT('',#476);
#130=VERTEX_POINT('',#478);
#131=VERTEX_POINT('',#482);
#132=VERTEX_POINT('',#487);
#133=VERTEX_POINT('',#490);
#134=EDGE_CURVE('',#117,#117,#98,.T.);
#135=EDGE_CURVE('',#117,#118,#82,.T.);
#136=EDGE_CURVE('',#118,#118,#99,.T.);
#137=EDGE_CURVE('',#119,#119,#100,.T.);
#138=EDGE_CURVE('',#119,#120,#83,.T.);
#139=EDGE_CURVE('',#120,#120,#101,.T.);
#140=EDGE_CURVE('',#121,#121,#102,.T.);
#141=EDGE_CURVE('',#121,#122,#103,.T.);
#142=EDGE_CURVE('',#122,#122,#104,.T.);
#143=EDGE_CURVE('',#123,#124,#105,.T.);
#144=EDGE_CURVE('',#123,#122,#84,.T.);
#145=EDGE_CURVE('',#124,#123,#106,.T.);
#146=EDGE_CURVE('',#125,#125,#107,.T.);
#147=EDGE_CURVE('',#125,#124,#108,.T.);
#148=EDGE_CURVE('',#126,#126,#109,.T.);
#149=EDGE_CURVE('',#126,#127,#85,.T.);
#150=EDGE_CURVE('',#127,#127,#110,.T.);
#151=EDGE_CURVE('',#127,#128,#86,.T.);
#152=EDGE_CURVE('',#128,#128,#111,.T.);
#153=EDGE_CURVE('',#129,#129,#112,.T.);
#154=EDGE_CURVE('',#129,#130,#87,.T.);
#155=EDGE_CURVE('',#130,#130,#113,.T.);
#156=EDGE_CURVE('',#130,#131,#88,.T.);
#157=EDGE_CURVE('',#131,#131,#114,.T.);
#158=EDGE_CURVE('',#132,#132,#115,.T.);
#159=EDGE_CURVE('',#133,#133,#116,.T.);
#160=EDGE_CURVE('',#133,#132,#89,.T.);
#161=ORIENTED_EDGE('',*,*,#134,.F.);
#162=ORIENTED_EDGE('',*,*,#135,.T.);
#163=ORIENTED_EDGE('',*,*,#136,.F.);
#164=ORIENTED_EDGE('',*,*,#135,.F.);
#165=ORIENTED_EDGE('',*,*,#137,.F.);
#166=ORIENTED_EDGE('',*,*,#137,.T.);
#167=ORIENTED_EDGE('',*,*,#138,.T.);
#168=ORIENTED_EDGE('',*,*,#139,.T.);
#169=ORIENTED_EDGE('',*,*,#138,.F.);
#170=ORIENTED_EDGE('',*,*,#139,.F.);
#171=ORIENTED_EDGE('',*,*,#136,.T.);
#172=ORIENTED_EDGE('',*,*,#140,.T.);
#173=ORIENTED_EDGE('',*,*,#141,.T.);
#174=ORIENTED_EDGE('',*,*,#142,.T.);
#175=ORIENTED_EDGE('',*,*,#141,.F.);
#176=ORIENTED_EDGE('',*,*,#143,.F.);
#177=ORIENTED_EDGE('',*,*,#144,.T.);
#178=ORIENTED_EDGE('',*,*,#142,.F.);
#179=ORIENTED_EDGE('',*,*,#144,.F.);
#180=ORIENTED_EDGE('',*,*,#145,.F.);
#181=ORIENTED_EDGE('',*,*,#140,.F.);
#182=ORIENTED_EDGE('',*,*,#146,.T.);
#183=ORIENTED_EDGE('',*,*,#147,.T.);
#184=ORIENTED_EDGE('',*,*,#145,.T.);
#185=ORIENTED_EDGE('',*,*,#143,.T.);
#186=ORIENTED_EDGE('',*,*,#147,.F.);
#187=ORIENTED_EDGE('',*,*,#146,.F.);
#188=ORIENTED_EDGE('',*,*,#134,.T.);
#189=ORIENTED_EDGE('',*,*,#148,.F.);
#190=ORIENTED_EDGE('',*,*,#149,.T.);
#191=ORIENTED_EDGE('',*,*,#150,.F.);
#192=ORIENTED_EDGE('',*,*,#149,.F.);
#193=ORIENTED_EDGE('',*,*,#150,.T.);
#194=ORIENTED_EDGE('',*,*,#151,.T.);
#195=ORIENTED_EDGE('',*,*,#152,.F.);
#196=ORIENTED_EDGE('',*,*,#151,.F.);
#197=ORIENTED_EDGE('',*,*,#153,.T.);
#198=ORIENTED_EDGE('',*,*,#154,.T.);
#199=ORIENTED_EDGE('',*,*,#155,.T.);
#200=ORIENTED_EDGE('',*,*,#154,.F.);
#201=ORIENTED_EDGE('',*,*,#155,.F.);
#202=ORIENTED_EDGE('',*,*,#156,.T.);
#203=ORIENTED_EDGE('',*,*,#157,.F.);
#204=ORIENTED_EDGE('',*,*,#156,.F.);
#205=ORIENTED_EDGE('',*,*,#153,.F.);
#206=ORIENTED_EDGE('',*,*,#148,.T.);
#207=ORIENTED_EDGE('',*,*,#158,.T.);
#208=ORIENTED_EDGE('',*,*,#152,.T.);
#209=ORIENTED_EDGE('',*,*,#159,.F.);
#210=ORIENTED_EDGE('',*,*,#160,.T.);
#211=ORIENTED_EDGE('',*,*,#158,.F.);
#212=ORIENTED_EDGE('',*,*,#160,.F.);
#213=ORIENTED_EDGE('',*,*,#159,.T.);
#214=ORIENTED_EDGE('',*,*,#157,.T.);
#215=CYLINDRICAL_SURFACE('',#301,4.);
#216=CYLINDRICAL_SURFACE('',#306,13.5);
#217=CYLINDRICAL_SURFACE('',#313,15.5);
#218=CYLINDRICAL_SURFACE('',#325,2.1);
#219=CYLINDRICAL_SURFACE('',#330,4.);
#220=CYLINDRICAL_SURFACE('',#335,9.);
#221=ADVANCED_FACE('',(#43),#215,.F.);
#222=ADVANCED_FACE('',(#44),#36,.T.);
#223=ADVANCED_FACE('',(#45),#216,.F.);
#224=ADVANCED_FACE('',(#46,#31),#37,.F.);
#225=ADVANCED_FACE('',(#47),#29,.T.);
#226=ADVANCED_FACE('',(#48),#217,.T.);
#227=ADVANCED_FACE('',(#49),#38,.F.);
#228=ADVANCED_FACE('',(#50),#30,.T.);
#229=ADVANCED_FACE('',(#51,#32),#39,.T.);
#230=ADVANCED_FACE('',(#52),#19,.F.);
#231=ADVANCED_FACE('',(#53),#218,.F.);
#232=ADVANCED_FACE('',(#54),#20,.T.);
#233=ADVANCED_FACE('',(#55),#219,.T.);
#234=ADVANCED_FACE('',(#56,#33),#40,.T.);
#235=ADVANCED_FACE('',(#57,#34),#41,.F.);
#236=ADVANCED_FACE('',(#58),#220,.T.);
#237=ADVANCED_FACE('',(#59,#35),#42,.T.);
#238=CLOSED_SHELL('',(#221,#222,#223,#224,#225,#226,#227,#228,#229));
#239=CLOSED_SHELL('',(#230,#231,#232,#233,#234,#235,#236,#237));
#240=DERIVED_UNIT_ELEMENT(#244,1.);
#241=DERIVED_UNIT_ELEMENT(#505,-3.);
#242=DERIVED_UNIT_ELEMENT(#244,1.);
#243=DERIVED_UNIT_ELEMENT(#505,-3.);
#244=(
MASS_UNIT()
NAMED_UNIT(*)
SI_UNIT($,.GRAM.)
);
#245=DERIVED_UNIT((#240,#241));
#246=DERIVED_UNIT((#242,#243));
#247=MEASURE_REPRESENTATION_ITEM('density measure',
POSITIVE_RATIO_MEASURE(1.425),#245);
#248=MEASURE_REPRESENTATION_ITEM('density measure',
POSITIVE_RATIO_MEASURE(8.03),#246);
#249=PROPERTY_DEFINITION_REPRESENTATION(#259,#253);
#250=PROPERTY_DEFINITION_REPRESENTATION(#260,#254);
#251=PROPERTY_DEFINITION_REPRESENTATION(#261,#255);
#252=PROPERTY_DEFINITION_REPRESENTATION(#262,#256);
#253=REPRESENTATION('material name',(#257),#501);
#254=REPRESENTATION('density',(#247),#501);
#255=REPRESENTATION('material name',(#258),#502);
#256=REPRESENTATION('density',(#248),#502);
#257=DESCRIPTIVE_REPRESENTATION_ITEM('_Plastic Rubber, Black',
'_Plastic Rubber, Black');
#258=DESCRIPTIVE_REPRESENTATION_ITEM('AISI 304','AISI 304');
#259=PROPERTY_DEFINITION('material property','material name',#521);
#260=PROPERTY_DEFINITION('material property','density of part',#521);
#261=PROPERTY_DEFINITION('material property','material name',#522);
#262=PROPERTY_DEFINITION('material property','density of part',#522);
#263=PRESENTATION_STYLE_ASSIGNMENT((#265));
#264=PRESENTATION_STYLE_ASSIGNMENT((#266));
#265=SURFACE_STYLE_USAGE(.BOTH.,#271);
#266=SURFACE_STYLE_USAGE(.BOTH.,#272);
#267=SURFACE_STYLE_RENDERING_WITH_PROPERTIES($,#279,(#269));
#268=SURFACE_STYLE_RENDERING_WITH_PROPERTIES($,#280,(#270));
#269=SURFACE_STYLE_TRANSPARENT(0.);
#270=SURFACE_STYLE_TRANSPARENT(0.);
#271=SURFACE_SIDE_STYLE('',(#273,#267));
#272=SURFACE_SIDE_STYLE('',(#274,#268));
#273=SURFACE_STYLE_FILL_AREA(#275);
#274=SURFACE_STYLE_FILL_AREA(#276);
#275=FILL_AREA_STYLE('',(#277));
#276=FILL_AREA_STYLE('',(#278));
#277=FILL_AREA_STYLE_COLOUR('',#279);
#278=FILL_AREA_STYLE_COLOUR('',#280);
#279=COLOUR_RGB('',0.,0.,0.);
#280=COLOUR_RGB('',0.745098039215686,0.737254901960784,0.729411764705882);
#281=DATE_TIME_ROLE('creation_date');
#282=DATE_TIME_ROLE('creation_date');
#283=DATE_TIME_ROLE('creation_date');
#284=CC_DESIGN_DATE_AND_TIME_ASSIGNMENT(#287,#281,(#520));
#285=CC_DESIGN_DATE_AND_TIME_ASSIGNMENT(#288,#282,(#521));
#286=CC_DESIGN_DATE_AND_TIME_ASSIGNMENT(#289,#283,(#522));
#287=DATE_AND_TIME(#290,#293);
#288=DATE_AND_TIME(#291,#294);
#289=DATE_AND_TIME(#292,#295);
#290=CALENDAR_DATE(2020,12,8);
#291=CALENDAR_DATE(2020,12,8);
#292=CALENDAR_DATE(2020,12,8);
#293=LOCAL_TIME(0,0,0.,#296);
#294=LOCAL_TIME(0,0,0.,#297);
#295=LOCAL_TIME(0,0,0.,#298);
#296=COORDINATED_UNIVERSAL_TIME_OFFSET(0,0,.BEHIND.);
#297=COORDINATED_UNIVERSAL_TIME_OFFSET(0,0,.BEHIND.);
#298=COORDINATED_UNIVERSAL_TIME_OFFSET(0,0,.BEHIND.);
#299=AXIS2_PLACEMENT_3D('placement',#430,#340,#341);
#300=AXIS2_PLACEMENT_3D('placement',#431,#342,#343);
#301=AXIS2_PLACEMENT_3D('',#432,#344,#345);
#302=AXIS2_PLACEMENT_3D('',#434,#346,#347);
#303=AXIS2_PLACEMENT_3D('',#437,#349,#350);
#304=AXIS2_PLACEMENT_3D('',#438,#351,#352);
#305=AXIS2_PLACEMENT_3D('',#440,#353,#354);
#306=AXIS2_PLACEMENT_3D('',#441,#355,#356);
#307=AXIS2_PLACEMENT_3D('',#444,#358,#359);
#308=AXIS2_PLACEMENT_3D('',#445,#360,#361);
#309=AXIS2_PLACEMENT_3D('',#446,#362,#363);
#310=AXIS2_PLACEMENT_3D('',#448,#364,#365);
#311=AXIS2_PLACEMENT_3D('',#450,#366,#367);
#312=AXIS2_PLACEMENT_3D('',#451,#368,#369);
#313=AXIS2_PLACEMENT_3D('',#452,#370,#371);
#314=AXIS2_PLACEMENT_3D('',#455,#372,#373);
#315=AXIS2_PLACEMENT_3D('',#457,#375,#376);
#316=AXIS2_PLACEMENT_3D('',#458,#377,#378);
#317=AXIS2_PLACEMENT_3D('',#459,#379,#380);
#318=AXIS2_PLACEMENT_3D('',#461,#381,#382);
#319=AXIS2_PLACEMENT_3D('',#462,#383,#384);
#320=AXIS2_PLACEMENT_3D('',#463,#385,#386);
#321=AXIS2_PLACEMENT_3D('placement',#464,#387,#388);
#322=AXIS2_PLACEMENT_3D('',#465,#389,#390);
#323=AXIS2_PLACEMENT_3D('',#467,#391,#392);
#324=AXIS2_PLACEMENT_3D('',#470,#394,#395);
#325=AXIS2_PLACEMENT_3D('',#471,#396,#397);
#326=AXIS2_PLACEMENT_3D('',#474,#399,#400);
#327=AXIS2_PLACEMENT_3D('',#475,#401,#402);
#328=AXIS2_PLACEMENT_3D('',#477,#403,#404);
#329=AXIS2_PLACEMENT_3D('',#480,#406,#407);
#330=AXIS2_PLACEMENT_3D('',#481,#408,#409);
#331=AXIS2_PLACEMENT_3D('',#484,#411,#412);
#332=AXIS2_PLACEMENT_3D('',#485,#413,#414);
#333=AXIS2_PLACEMENT_3D('',#486,#415,#416);
#334=AXIS2_PLACEMENT_3D('',#488,#417,#418);
#335=AXIS2_PLACEMENT_3D('',#489,#419,#420);
#336=AXIS2_PLACEMENT_3D('',#491,#421,#422);
#337=AXIS2_PLACEMENT_3D('',#493,#424,#425);
#338=AXIS2_PLACEMENT_3D('',#494,#426,#427);
#339=AXIS2_PLACEMENT_3D('',#495,#428,#429);
#340=DIRECTION('axis',(0.,0.,1.));
#341=DIRECTION('refdir',(1.,0.,0.));
#342=DIRECTION('axis',(0.,0.,1.));
#343=DIRECTION('refdir',(1.,0.,0.));
#344=DIRECTION('center_axis',(0.,0.,-1.));
#345=DIRECTION('ref_axis',(-1.,0.,0.));
#346=DIRECTION('center_axis',(0.,0.,-1.));
#347=DIRECTION('ref_axis',(-1.,0.,0.));
#348=DIRECTION('',(0.,0.,-1.));
#349=DIRECTION('center_axis',(0.,0.,1.));
#350=DIRECTION('ref_axis',(-1.,0.,0.));
#351=DIRECTION('center_axis',(0.,0.,1.));
#352=DIRECTION('ref_axis',(1.,0.,0.));
#353=DIRECTION('center_axis',(0.,0.,-1.));
#354=DIRECTION('ref_axis',(-1.,0.,0.));
#355=DIRECTION('center_axis',(0.,0.,1.));
#356=DIRECTION('ref_axis',(-1.,0.,0.));
#357=DIRECTION('',(0.,0.,1.));
#358=DIRECTION('center_axis',(0.,0.,1.));
#359=DIRECTION('ref_axis',(-1.,0.,0.));
#360=DIRECTION('center_axis',(0.,0.,1.));
#361=DIRECTION('ref_axis',(1.,0.,0.));
#362=DIRECTION('center_axis',(0.,0.,-1.));
#363=DIRECTION('ref_axis',(-1.,0.,0.));
#364=DIRECTION('center_axis',(0.,0.,1.));
#365=DIRECTION('ref_axis',(-1.,0.,0.));
#366=DIRECTION('center_axis',(-1.22464679914735E-16,-1.,0.));
#367=DIRECTION('ref_axis',(1.,-1.22464679914735E-16,0.));
#368=DIRECTION('center_axis',(0.,0.,-1.));
#369=DIRECTION('ref_axis',(-1.,0.,0.));
#370=DIRECTION('center_axis',(0.,0.,1.));
#371=DIRECTION('ref_axis',(-1.,0.,0.));
#372=DIRECTION('center_axis',(0.,0.,1.));
#373=DIRECTION('ref_axis',(-1.,0.,0.));
#374=DIRECTION('',(0.,0.,-1.));
#375=DIRECTION('center_axis',(0.,0.,1.));
#376=DIRECTION('ref_axis',(-1.,0.,0.));
#377=DIRECTION('center_axis',(0.,0.,1.));
#378=DIRECTION('ref_axis',(1.,0.,0.));
#379=DIRECTION('center_axis',(0.,0.,1.));
#380=DIRECTION('ref_axis',(1.,0.,0.));
#381=DIRECTION('center_axis',(0.,0.,-1.));
#382=DIRECTION('ref_axis',(-1.,0.,0.));
#383=DIRECTION('center_axis',(1.22464679914735E-16,-1.,0.));
#384=DIRECTION('ref_axis',(-1.,-1.22464679914735E-16,0.));
#385=DIRECTION('center_axis',(0.,0.,1.));
#386=DIRECTION('ref_axis',(1.,0.,0.));
#387=DIRECTION('axis',(0.,0.,1.));
#388=DIRECTION('refdir',(1.,0.,0.));
#389=DIRECTION('center_axis',(0.,0.,1.));
#390=DIRECTION('ref_axis',(1.,0.,0.));
#391=DIRECTION('center_axis',(0.,0.,-1.));
#392=DIRECTION('ref_axis',(1.,0.,0.));
#393=DIRECTION('',(0.707106781186547,8.65956056235493E-17,-0.707106781186548));
#394=DIRECTION('center_axis',(0.,0.,1.));
#395=DIRECTION('ref_axis',(1.,0.,0.));
#396=DIRECTION('center_axis',(0.,0.,1.));
#397=DIRECTION('ref_axis',(1.,0.,0.));
#398=DIRECTION('',(0.,0.,-1.));
#399=DIRECTION('center_axis',(0.,0.,1.));
#400=DIRECTION('ref_axis',(1.,0.,0.));
#401=DIRECTION('center_axis',(0.,0.,-1.));
#402=DIRECTION('ref_axis',(-1.,0.,0.));
#403=DIRECTION('center_axis',(0.,0.,-1.));
#404=DIRECTION('ref_axis',(-1.,0.,0.));
#405=DIRECTION('',(0.707106781186548,8.65956056235493E-17,-0.707106781186548));
#406=DIRECTION('center_axis',(0.,0.,1.));
#407=DIRECTION('ref_axis',(-1.,0.,0.));
#408=DIRECTION('center_axis',(0.,0.,1.));
#409=DIRECTION('ref_axis',(-1.,0.,0.));
#410=DIRECTION('',(0.,0.,-1.));
#411=DIRECTION('center_axis',(0.,0.,-1.));
#412=DIRECTION('ref_axis',(-1.,0.,0.));
#413=DIRECTION('center_axis',(0.,0.,1.));
#414=DIRECTION('ref_axis',(1.,0.,0.));
#415=DIRECTION('center_axis',(0.,0.,1.));
#416=DIRECTION('ref_axis',(1.,0.,0.));
#417=DIRECTION('center_axis',(0.,0.,-1.));
#418=DIRECTION('ref_axis',(-1.,0.,0.));
#419=DIRECTION('center_axis',(0.,0.,1.));
#420=DIRECTION('ref_axis',(-1.,0.,0.));
#421=DIRECTION('center_axis',(0.,0.,1.));
#422=DIRECTION('ref_axis',(-1.,0.,0.));
#423=DIRECTION('',(0.,0.,-1.));
#424=DIRECTION('center_axis',(0.,0.,1.));
#425=DIRECTION('ref_axis',(1.,0.,0.));
#426=DIRECTION('',(0.,0.,1.));
#427=DIRECTION('',(1.,0.,0.));
#428=DIRECTION('',(0.,0.,1.));
#429=DIRECTION('',(1.,0.,0.));
#430=CARTESIAN_POINT('',(0.,0.,0.));
#431=CARTESIAN_POINT('',(0.,0.,0.));
#432=CARTESIAN_POINT('Origin',(0.,0.,3.));
#433=CARTESIAN_POINT('',(4.,4.89858719658941E-16,3.));
#434=CARTESIAN_POINT('Origin',(0.,0.,3.));
#435=CARTESIAN_POINT('',(4.,4.89858719658941E-16,2.));
#436=CARTESIAN_POINT('',(4.,-4.89858719658941E-16,3.));
#437=CARTESIAN_POINT('Origin',(0.,0.,2.));
#438=CARTESIAN_POINT('Origin',(-1.37772764904077E-16,0.,-2.));
#439=CARTESIAN_POINT('',(13.5,1.65327317884893E-15,-2.));
#440=CARTESIAN_POINT('Origin',(0.,0.,-2.));
#441=CARTESIAN_POINT('Origin',(0.,0.,0.));
#442=CARTESIAN_POINT('',(13.5,1.65327317884893E-15,2.));
#443=CARTESIAN_POINT('',(13.5,1.65327317884893E-15,0.));
#444=CARTESIAN_POINT('Origin',(0.,0.,2.));
#445=CARTESIAN_POINT('Origin',(-1.37772764904077E-16,0.,2.));
#446=CARTESIAN_POINT('Origin',(0.,0.,-2.5));
#447=CARTESIAN_POINT('',(15.,1.83697019872103E-15,-3.));
#448=CARTESIAN_POINT('Origin',(0.,0.,-3.));
#449=CARTESIAN_POINT('',(15.5,-1.8982025386784E-15,-2.5));
#450=CARTESIAN_POINT('Origin',(15.,-1.83697019872103E-15,-2.5));
#451=CARTESIAN_POINT('Origin',(0.,0.,-2.5));
#452=CARTESIAN_POINT('Origin',(0.,0.,0.));
#453=CARTESIAN_POINT('',(15.5,1.8982025386784E-15,2.5));
#454=CARTESIAN_POINT('',(-15.5,-1.8982025386784E-15,2.5));
#455=CARTESIAN_POINT('Origin',(0.,0.,2.5));
#456=CARTESIAN_POINT('',(15.5,1.8982025386784E-15,0.));
#457=CARTESIAN_POINT('Origin',(0.,0.,2.5));
#458=CARTESIAN_POINT('Origin',(-1.11321410370721E-15,0.,-3.));
#459=CARTESIAN_POINT('Origin',(0.,0.,2.5));
#460=CARTESIAN_POINT('',(-15.,-1.83697019872103E-15,3.));
#461=CARTESIAN_POINT('Origin',(0.,0.,3.));
#462=CARTESIAN_POINT('Origin',(-15.,-1.83697019872103E-15,2.5));
#463=CARTESIAN_POINT('Origin',(-1.11321410370721E-15,0.,3.));
#464=CARTESIAN_POINT('',(0.,0.,0.));
#465=CARTESIAN_POINT('Origin',(0.,0.,2.55));
#466=CARTESIAN_POINT('',(-3.,-3.67394039744206E-16,3.));
#467=CARTESIAN_POINT('Origin',(0.,0.,3.));
#468=CARTESIAN_POINT('',(-2.1,-2.57175827820944E-16,2.1));
#469=CARTESIAN_POINT('',(-2.55,-3.12284933782575E-16,2.55));
#470=CARTESIAN_POINT('Origin',(0.,0.,2.1));
#471=CARTESIAN_POINT('Origin',(0.,0.,-22.9422435421457));
#472=CARTESIAN_POINT('',(-2.1,-2.57175827820944E-16,-2.));
#473=CARTESIAN_POINT('',(-2.1,-2.57175827820944E-16,-22.9422435421457));
#474=CARTESIAN_POINT('Origin',(0.,0.,-2.));
#475=CARTESIAN_POINT('Origin',(0.,0.,2.9));
#476=CARTESIAN_POINT('',(3.8,-4.65365783675994E-16,3.));
#477=CARTESIAN_POINT('Origin',(0.,0.,3.));
#478=CARTESIAN_POINT('',(4.,4.89858719658941E-16,2.8));
#479=CARTESIAN_POINT('',(3.9,4.77612251667468E-16,2.9));
#480=CARTESIAN_POINT('Origin',(0.,0.,2.8));
#481=CARTESIAN_POINT('Origin',(0.,0.,2.));
#482=CARTESIAN_POINT('',(4.,4.89858719658941E-16,2.));
#483=CARTESIAN_POINT('',(4.,4.89858719658941E-16,2.));
#484=CARTESIAN_POINT('Origin',(0.,0.,2.));
#485=CARTESIAN_POINT('Origin',(-3.8776625516694E-16,-5.78241158658936E-17,
3.));
#486=CARTESIAN_POINT('Origin',(-5.03042222760184E-16,0.,-2.));
#487=CARTESIAN_POINT('',(9.,1.10218211923262E-15,-2.));
#488=CARTESIAN_POINT('Origin',(0.,0.,-2.));
#489=CARTESIAN_POINT('Origin',(0.,0.,0.));
#490=CARTESIAN_POINT('',(9.,1.10218211923262E-15,2.));
#491=CARTESIAN_POINT('Origin',(0.,0.,2.));
#492=CARTESIAN_POINT('',(9.,1.10218211923262E-15,0.));
#493=CARTESIAN_POINT('Origin',(-5.03042222760184E-16,0.,2.));
#494=CARTESIAN_POINT('',(0.,0.,0.));
#495=CARTESIAN_POINT('',(0.,0.,0.));
#496=UNCERTAINTY_MEASURE_WITH_UNIT(LENGTH_MEASURE(0.01),#504,
'DISTANCE_ACCURACY_VALUE',
'Maximum model space distance between geometric entities at asserted c
onnectivities');
#497=UNCERTAINTY_MEASURE_WITH_UNIT(LENGTH_MEASURE(0.01),#504,
'DISTANCE_ACCURACY_VALUE',
'Maximum model space distance between geometric entities at asserted c
onnectivities');
#498=UNCERTAINTY_MEASURE_WITH_UNIT(LENGTH_MEASURE(0.01),#504,
'DISTANCE_ACCURACY_VALUE',
'Maximum model space distance between geometric entities at asserted c
onnectivities');
#499=UNCERTAINTY_MEASURE_WITH_UNIT(LENGTH_MEASURE(0.01),#504,
'DISTANCE_ACCURACY_VALUE',
'Maximum model space distance between geometric entities at asserted c
onnectivities');
#500=(
GEOMETRIC_REPRESENTATION_CONTEXT(3)
GLOBAL_UNCERTAINTY_ASSIGNED_CONTEXT((#496))
GLOBAL_UNIT_ASSIGNED_CONTEXT((#504,#506,#507))
REPRESENTATION_CONTEXT('','3D')
);
#501=(
GEOMETRIC_REPRESENTATION_CONTEXT(3)
GLOBAL_UNCERTAINTY_ASSIGNED_CONTEXT((#497))
GLOBAL_UNIT_ASSIGNED_CONTEXT((#504,#506,#507))
REPRESENTATION_CONTEXT('','3D')
);
#502=(
GEOMETRIC_REPRESENTATION_CONTEXT(3)
GLOBAL_UNCERTAINTY_ASSIGNED_CONTEXT((#498))
GLOBAL_UNIT_ASSIGNED_CONTEXT((#504,#506,#507))
REPRESENTATION_CONTEXT('','3D')
);
#503=(
GEOMETRIC_REPRESENTATION_CONTEXT(3)
GLOBAL_UNCERTAINTY_ASSIGNED_CONTEXT((#499))
GLOBAL_UNIT_ASSIGNED_CONTEXT((#504,#506,#507))
REPRESENTATION_CONTEXT('','3D')
);
#504=(
LENGTH_UNIT()
NAMED_UNIT(*)
SI_UNIT(.MILLI.,.METRE.)
);
#505=(
LENGTH_UNIT()
NAMED_UNIT(*)
SI_UNIT(.CENTI.,.METRE.)
);
#506=(
NAMED_UNIT(*)
PLANE_ANGLE_UNIT()
SI_UNIT($,.RADIAN.)
);
#507=(
NAMED_UNIT(*)
SI_UNIT($,.STERADIAN.)
SOLID_ANGLE_UNIT()
);
#508=SHAPE_DEFINITION_REPRESENTATION(#511,#516);
#509=SHAPE_DEFINITION_REPRESENTATION(#512,#517);
#510=SHAPE_DEFINITION_REPRESENTATION(#513,#518);
#511=PRODUCT_DEFINITION_SHAPE('',$,#520);
#512=PRODUCT_DEFINITION_SHAPE('',$,#521);
#513=PRODUCT_DEFINITION_SHAPE('',$,#522);
#514=PRODUCT_DEFINITION_SHAPE($,$,#17);
#515=PRODUCT_DEFINITION_SHAPE($,$,#18);
#516=SHAPE_REPRESENTATION('',(#299,#338,#339),#500);
#517=SHAPE_REPRESENTATION('',(#300),#501);
#518=SHAPE_REPRESENTATION('',(#321),#502);
#519=DESIGN_CONTEXT('part definition',#530,'design');
#520=PRODUCT_DEFINITION('GM17485','GM17485',#523,#519);
#521=PRODUCT_DEFINITION('E0134765','E0134765',#524,#519);
#522=PRODUCT_DEFINITION('E0134766','E0134766',#525,#519);
#523=PRODUCT_DEFINITION_FORMATION('-',$,#532);
#524=PRODUCT_DEFINITION_FORMATION('-',$,#533);
#525=PRODUCT_DEFINITION_FORMATION('-',$,#534);
#526=PRODUCT_RELATED_PRODUCT_CATEGORY('GM17485','GM17485',(#532));
#527=PRODUCT_RELATED_PRODUCT_CATEGORY('E0134765','E0134765',(#533));
#528=PRODUCT_RELATED_PRODUCT_CATEGORY('E0134766','E0134766',(#534));
#529=APPLICATION_PROTOCOL_DEFINITION('international standard',
'ap203_configuration_controlled_3d_design_of_mechanical_parts_and_asse
mblies_mim_lf',2004,#530);
#530=APPLICATION_CONTEXT(
'Configuration Controlled 3D Design of Mechanical Parts and Assemblies');
#531=MECHANICAL_CONTEXT('part definition',#530,'mechanical');
#532=PRODUCT('GM17485','GM17485',$,(#531));
#533=PRODUCT('E0134765','E0134765',$,(#531));
#534=PRODUCT('E0134766','E0134766',$,(#531));
ENDSEC;
END-ISO-10303-21;
