ISO-10303-21;
HEADER;
/* Generated by software containing ST-Developer
 * from STEP Tools, Inc. (www.steptools.com) 
 */

FILE_DESCRIPTION(
/* description */ ('',
'CAx-IF Rec.Pracs.---Representation and Presentation of Product Manufa
cturing Information (PMI)---4.0---2014-10-13'),
/* implementation_level */ '2;1');

FILE_NAME(
/* name */ 
'C:\\Workspace\\Documents\\Products\\Handling\\Pot magnets\\GM17557\\G
M17557.stp',
/* time_stamp */ '2020-09-03T11:23:10+02:00',
/* author */ ('tm'),
/* organization */ (''),
/* preprocessor_version */ 'ST-DEVELOPER v17.2',
/* originating_system */ 'Autodesk Inventor 2019',
/* authorisation */ '');

FILE_SCHEMA (('AP242_MANAGED_MODEL_BASED_3D_ENGINEERING_MIM_LF { 1 0 10303 442 1 1 4 }'));
ENDSEC;

DATA;
#10=MECHANICAL_DESIGN_GEOMETRIC_PRESENTATION_REPRESENTATION('',(#36,#37,
#38,#39,#40,#41,#42,#43,#44,#45,#46,#47,#48,#49),#584);
#11=ITEM_DEFINED_TRANSFORMATION($,$,#346,#390);
#12=ITEM_DEFINED_TRANSFORMATION($,$,#379,#391);
#13=(
REPRESENTATION_RELATIONSHIP($,$,#598,#597)
REPRESENTATION_RELATIONSHIP_WITH_TRANSFORMATION(#11)
SHAPE_REPRESENTATION_RELATIONSHIP()
);
#14=(
REPRESENTATION_RELATIONSHIP($,$,#599,#597)
REPRESENTATION_RELATIONSHIP_WITH_TRANSFORMATION(#12)
SHAPE_REPRESENTATION_RELATIONSHIP()
);
#15=CONTEXT_DEPENDENT_SHAPE_REPRESENTATION(#13,#595);
#16=CONTEXT_DEPENDENT_SHAPE_REPRESENTATION(#14,#596);
#17=NEXT_ASSEMBLY_USAGE_OCCURRENCE('E0134789:1','E0134789:1',
'E0134789:1',#601,#602,'E0134789:1');
#18=NEXT_ASSEMBLY_USAGE_OCCURRENCE('E0134790:1','E0134790:1',
'E0134790:1',#601,#603,'E0134790:1');
#19=GEOMETRICALLY_BOUNDED_WIREFRAME_SHAPE_REPRESENTATION('',(#21,#22),#582);
#20=GEOMETRICALLY_BOUNDED_WIREFRAME_SHAPE_REPRESENTATION('',(#23),#583);
#21=GEOMETRIC_CURVE_SET('Sketch2',(#136,#137));
#22=GEOMETRIC_CURVE_SET('Sketch4',(#30,#31,#32,#33,#34));
#23=GEOMETRIC_CURVE_SET('Sketch2',(#142,#143));
#24=SHAPE_REPRESENTATION_RELATIONSHIP('SRR','None',#598,#28);
#25=SHAPE_REPRESENTATION_RELATIONSHIP('SRR','None',#598,#19);
#26=SHAPE_REPRESENTATION_RELATIONSHIP('SRR','None',#599,#29);
#27=SHAPE_REPRESENTATION_RELATIONSHIP('SRR','None',#599,#20);
#28=ADVANCED_BREP_SHAPE_REPRESENTATION('',(#50),#582);
#29=ADVANCED_BREP_SHAPE_REPRESENTATION('',(#51),#583);
#30=POLYLINE('',(#548,#549));
#31=POLYLINE('',(#550,#551));
#32=POLYLINE('',(#552,#553));
#33=POLYLINE('',(#554,#555));
#34=POLYLINE('',(#556,#557));
#35=INVISIBILITY((#37,#38,#39,#40,#41,#42,#43,#44,#45,#47,#48,#49));
#36=STYLED_ITEM('',(#297),#50);
#37=STYLED_ITEM('',(#298),#136);
#38=STYLED_ITEM('',(#298),#137);
#39=STYLED_ITEM('',(#298),#30);
#40=STYLED_ITEM('',(#298),#31);
#41=STYLED_ITEM('',(#299),#32);
#42=STYLED_ITEM('',(#298),#33);
#43=STYLED_ITEM('',(#300),#34);
#44=STYLED_ITEM('',(#301),#21);
#45=STYLED_ITEM('',(#302),#22);
#46=STYLED_ITEM('',(#303),#51);
#47=STYLED_ITEM('',(#298),#142);
#48=STYLED_ITEM('',(#298),#143);
#49=STYLED_ITEM('',(#304),#23);
#50=MANIFOLD_SOLID_BREP('Solid2',#272);
#51=MANIFOLD_SOLID_BREP('Solid2',#273);
#52=FACE_BOUND('',#99,.T.);
#53=FACE_BOUND('',#102,.T.);
#54=FACE_BOUND('',#104,.T.);
#55=FACE_BOUND('',#107,.T.);
#56=FACE_BOUND('',#112,.T.);
#57=FACE_BOUND('',#115,.T.);
#58=PLANE('',#356);
#59=PLANE('',#362);
#60=PLANE('',#364);
#61=PLANE('',#372);
#62=PLANE('',#383);
#63=PLANE('',#387);
#64=LINE('',#506,#70);
#65=LINE('',#533,#71);
#66=LINE('',#543,#72);
#67=LINE('',#545,#73);
#68=LINE('',#563,#74);
#69=LINE('',#571,#75);
#70=VECTOR('',#410,28.5);
#71=VECTOR('',#443,21.);
#72=VECTOR('',#456,12.5);
#73=VECTOR('',#459,12.5);
#74=VECTOR('',#470,4.);
#75=VECTOR('',#481,21.);
#76=CYLINDRICAL_SURFACE('',#353,28.5);
#77=CYLINDRICAL_SURFACE('',#369,21.);
#78=CYLINDRICAL_SURFACE('',#375,12.5);
#79=CYLINDRICAL_SURFACE('',#376,12.5);
#80=CYLINDRICAL_SURFACE('',#380,4.);
#81=CYLINDRICAL_SURFACE('',#385,21.);
#82=FACE_OUTER_BOUND('',#96,.T.);
#83=FACE_OUTER_BOUND('',#97,.T.);
#84=FACE_OUTER_BOUND('',#98,.T.);
#85=FACE_OUTER_BOUND('',#100,.T.);
#86=FACE_OUTER_BOUND('',#101,.T.);
#87=FACE_OUTER_BOUND('',#103,.T.);
#88=FACE_OUTER_BOUND('',#105,.T.);
#89=FACE_OUTER_BOUND('',#106,.T.);
#90=FACE_OUTER_BOUND('',#108,.T.);
#91=FACE_OUTER_BOUND('',#109,.T.);
#92=FACE_OUTER_BOUND('',#110,.T.);
#93=FACE_OUTER_BOUND('',#111,.T.);
#94=FACE_OUTER_BOUND('',#113,.T.);
#95=FACE_OUTER_BOUND('',#114,.T.);
#96=EDGE_LOOP('',(#196,#197,#198,#199,#200,#201));
#97=EDGE_LOOP('',(#202,#203,#204,#205,#206,#207));
#98=EDGE_LOOP('',(#208,#209));
#99=EDGE_LOOP('',(#210));
#100=EDGE_LOOP('',(#211,#212,#213,#214,#215,#216));
#101=EDGE_LOOP('',(#217,#218));
#102=EDGE_LOOP('',(#219));
#103=EDGE_LOOP('',(#220,#221));
#104=EDGE_LOOP('',(#222,#223));
#105=EDGE_LOOP('',(#224,#225,#226,#227,#228,#229));
#106=EDGE_LOOP('',(#230,#231));
#107=EDGE_LOOP('',(#232,#233));
#108=EDGE_LOOP('',(#234,#235,#236,#237,#238));
#109=EDGE_LOOP('',(#239,#240,#241,#242,#243));
#110=EDGE_LOOP('',(#244,#245,#246,#247));
#111=EDGE_LOOP('',(#248));
#112=EDGE_LOOP('',(#249));
#113=EDGE_LOOP('',(#250,#251,#252,#253));
#114=EDGE_LOOP('',(#254));
#115=EDGE_LOOP('',(#255));
#116=CIRCLE('',#348,28.);
#117=CIRCLE('',#349,0.5);
#118=CIRCLE('',#350,28.5);
#119=CIRCLE('',#351,28.5);
#120=CIRCLE('',#352,28.);
#121=CIRCLE('',#354,28.5);
#122=CIRCLE('',#355,28.5);
#123=CIRCLE('',#357,12.5);
#124=CIRCLE('',#359,28.);
#125=CIRCLE('',#360,0.5);
#126=CIRCLE('',#361,28.);
#127=CIRCLE('',#363,12.5);
#128=CIRCLE('',#365,21.);
#129=CIRCLE('',#366,21.);
#130=CIRCLE('',#367,12.5);
#131=CIRCLE('',#368,12.5);
#132=CIRCLE('',#370,21.);
#133=CIRCLE('',#371,21.);
#134=CIRCLE('',#373,12.5);
#135=CIRCLE('',#374,12.5);
#136=CIRCLE('',#377,28.5);
#137=CIRCLE('',#378,12.5);
#138=CIRCLE('',#381,4.);
#139=CIRCLE('',#382,4.);
#140=CIRCLE('',#384,21.);
#141=CIRCLE('',#386,21.);
#142=CIRCLE('',#388,21.);
#143=CIRCLE('',#389,4.);
#144=VERTEX_POINT('',#495);
#145=VERTEX_POINT('',#496);
#146=VERTEX_POINT('',#498);
#147=VERTEX_POINT('',#500);
#148=VERTEX_POINT('',#505);
#149=VERTEX_POINT('',#507);
#150=VERTEX_POINT('',#511);
#151=VERTEX_POINT('',#514);
#152=VERTEX_POINT('',#515);
#153=VERTEX_POINT('',#520);
#154=VERTEX_POINT('',#523);
#155=VERTEX_POINT('',#524);
#156=VERTEX_POINT('',#527);
#157=VERTEX_POINT('',#528);
#158=VERTEX_POINT('',#532);
#159=VERTEX_POINT('',#534);
#160=VERTEX_POINT('',#538);
#161=VERTEX_POINT('',#539);
#162=VERTEX_POINT('',#560);
#163=VERTEX_POINT('',#562);
#164=VERTEX_POINT('',#566);
#165=VERTEX_POINT('',#569);
#166=EDGE_CURVE('',#144,#145,#116,.T.);
#167=EDGE_CURVE('',#145,#146,#117,.T.);
#168=EDGE_CURVE('',#146,#147,#118,.T.);
#169=EDGE_CURVE('',#147,#146,#119,.T.);
#170=EDGE_CURVE('',#145,#144,#120,.T.);
#171=EDGE_CURVE('',#147,#148,#64,.T.);
#172=EDGE_CURVE('',#149,#148,#121,.T.);
#173=EDGE_CURVE('',#148,#149,#122,.T.);
#174=EDGE_CURVE('',#150,#150,#123,.T.);
#175=EDGE_CURVE('',#151,#152,#124,.T.);
#176=EDGE_CURVE('',#152,#149,#125,.T.);
#177=EDGE_CURVE('',#152,#151,#126,.T.);
#178=EDGE_CURVE('',#153,#153,#127,.T.);
#179=EDGE_CURVE('',#154,#155,#128,.T.);
#180=EDGE_CURVE('',#155,#154,#129,.T.);
#181=EDGE_CURVE('',#156,#157,#130,.T.);
#182=EDGE_CURVE('',#157,#156,#131,.T.);
#183=EDGE_CURVE('',#155,#158,#65,.T.);
#184=EDGE_CURVE('',#158,#159,#132,.T.);
#185=EDGE_CURVE('',#159,#158,#133,.T.);
#186=EDGE_CURVE('',#160,#161,#134,.T.);
#187=EDGE_CURVE('',#161,#160,#135,.T.);
#188=EDGE_CURVE('',#153,#161,#66,.T.);
#189=EDGE_CURVE('',#157,#150,#67,.T.);
#190=EDGE_CURVE('',#162,#162,#138,.T.);
#191=EDGE_CURVE('',#162,#163,#68,.T.);
#192=EDGE_CURVE('',#163,#163,#139,.T.);
#193=EDGE_CURVE('',#164,#164,#140,.T.);
#194=EDGE_CURVE('',#165,#165,#141,.T.);
#195=EDGE_CURVE('',#165,#164,#69,.T.);
#196=ORIENTED_EDGE('',*,*,#166,.T.);
#197=ORIENTED_EDGE('',*,*,#167,.T.);
#198=ORIENTED_EDGE('',*,*,#168,.T.);
#199=ORIENTED_EDGE('',*,*,#169,.T.);
#200=ORIENTED_EDGE('',*,*,#167,.F.);
#201=ORIENTED_EDGE('',*,*,#170,.T.);
#202=ORIENTED_EDGE('',*,*,#169,.F.);
#203=ORIENTED_EDGE('',*,*,#171,.T.);
#204=ORIENTED_EDGE('',*,*,#172,.F.);
#205=ORIENTED_EDGE('',*,*,#173,.F.);
#206=ORIENTED_EDGE('',*,*,#171,.F.);
#207=ORIENTED_EDGE('',*,*,#168,.F.);
#208=ORIENTED_EDGE('',*,*,#166,.F.);
#209=ORIENTED_EDGE('',*,*,#170,.F.);
#210=ORIENTED_EDGE('',*,*,#174,.T.);
#211=ORIENTED_EDGE('',*,*,#175,.T.);
#212=ORIENTED_EDGE('',*,*,#176,.T.);
#213=ORIENTED_EDGE('',*,*,#172,.T.);
#214=ORIENTED_EDGE('',*,*,#173,.T.);
#215=ORIENTED_EDGE('',*,*,#176,.F.);
#216=ORIENTED_EDGE('',*,*,#177,.T.);
#217=ORIENTED_EDGE('',*,*,#175,.F.);
#218=ORIENTED_EDGE('',*,*,#177,.F.);
#219=ORIENTED_EDGE('',*,*,#178,.T.);
#220=ORIENTED_EDGE('',*,*,#179,.T.);
#221=ORIENTED_EDGE('',*,*,#180,.T.);
#222=ORIENTED_EDGE('',*,*,#181,.F.);
#223=ORIENTED_EDGE('',*,*,#182,.F.);
#224=ORIENTED_EDGE('',*,*,#179,.F.);
#225=ORIENTED_EDGE('',*,*,#180,.F.);
#226=ORIENTED_EDGE('',*,*,#183,.T.);
#227=ORIENTED_EDGE('',*,*,#184,.T.);
#228=ORIENTED_EDGE('',*,*,#185,.T.);
#229=ORIENTED_EDGE('',*,*,#183,.F.);
#230=ORIENTED_EDGE('',*,*,#185,.F.);
#231=ORIENTED_EDGE('',*,*,#184,.F.);
#232=ORIENTED_EDGE('',*,*,#186,.F.);
#233=ORIENTED_EDGE('',*,*,#187,.F.);
#234=ORIENTED_EDGE('',*,*,#178,.F.);
#235=ORIENTED_EDGE('',*,*,#188,.T.);
#236=ORIENTED_EDGE('',*,*,#187,.T.);
#237=ORIENTED_EDGE('',*,*,#186,.T.);
#238=ORIENTED_EDGE('',*,*,#188,.F.);
#239=ORIENTED_EDGE('',*,*,#181,.T.);
#240=ORIENTED_EDGE('',*,*,#189,.T.);
#241=ORIENTED_EDGE('',*,*,#174,.F.);
#242=ORIENTED_EDGE('',*,*,#189,.F.);
#243=ORIENTED_EDGE('',*,*,#182,.T.);
#244=ORIENTED_EDGE('',*,*,#190,.F.);
#245=ORIENTED_EDGE('',*,*,#191,.T.);
#246=ORIENTED_EDGE('',*,*,#192,.F.);
#247=ORIENTED_EDGE('',*,*,#191,.F.);
#248=ORIENTED_EDGE('',*,*,#193,.T.);
#249=ORIENTED_EDGE('',*,*,#190,.T.);
#250=ORIENTED_EDGE('',*,*,#194,.F.);
#251=ORIENTED_EDGE('',*,*,#195,.T.);
#252=ORIENTED_EDGE('',*,*,#193,.F.);
#253=ORIENTED_EDGE('',*,*,#195,.F.);
#254=ORIENTED_EDGE('',*,*,#194,.T.);
#255=ORIENTED_EDGE('',*,*,#192,.T.);
#256=TOROIDAL_SURFACE('',#347,28.,0.5);
#257=TOROIDAL_SURFACE('',#358,28.,0.5);
#258=ADVANCED_FACE('',(#82),#256,.T.);
#259=ADVANCED_FACE('',(#83),#76,.T.);
#260=ADVANCED_FACE('',(#84,#52),#58,.T.);
#261=ADVANCED_FACE('',(#85),#257,.T.);
#262=ADVANCED_FACE('',(#86,#53),#59,.F.);
#263=ADVANCED_FACE('',(#87,#54),#60,.F.);
#264=ADVANCED_FACE('',(#88),#77,.F.);
#265=ADVANCED_FACE('',(#89,#55),#61,.F.);
#266=ADVANCED_FACE('',(#90),#78,.F.);
#267=ADVANCED_FACE('',(#91),#79,.F.);
#268=ADVANCED_FACE('',(#92),#80,.F.);
#269=ADVANCED_FACE('',(#93,#56),#62,.F.);
#270=ADVANCED_FACE('',(#94),#81,.T.);
#271=ADVANCED_FACE('',(#95,#57),#63,.T.);
#272=CLOSED_SHELL('',(#258,#259,#260,#261,#262,#263,#264,#265,#266,#267));
#273=CLOSED_SHELL('',(#268,#269,#270,#271));
#274=DERIVED_UNIT_ELEMENT(#278,1.);
#275=DERIVED_UNIT_ELEMENT(#586,3.);
#276=DERIVED_UNIT_ELEMENT(#278,1.);
#277=DERIVED_UNIT_ELEMENT(#586,3.);
#278=(
MASS_UNIT()
NAMED_UNIT(*)
SI_UNIT($,.GRAM.)
);
#279=DERIVED_UNIT((#274,#275));
#280=DERIVED_UNIT((#276,#277));
#281=MEASURE_REPRESENTATION_ITEM('density measure',
POSITIVE_RATIO_MEASURE(0.94),#279);
#282=MEASURE_REPRESENTATION_ITEM('density measure',
POSITIVE_RATIO_MEASURE(8.03),#280);
#283=PROPERTY_DEFINITION_REPRESENTATION(#293,#287);
#284=PROPERTY_DEFINITION_REPRESENTATION(#294,#288);
#285=PROPERTY_DEFINITION_REPRESENTATION(#295,#289);
#286=PROPERTY_DEFINITION_REPRESENTATION(#296,#290);
#287=REPRESENTATION('material name',(#291),#582);
#288=REPRESENTATION('density',(#281),#582);
#289=REPRESENTATION('material name',(#292),#583);
#290=REPRESENTATION('density',(#282),#583);
#291=DESCRIPTIVE_REPRESENTATION_ITEM('_Plastic UHMPE, Black',
'_Plastic UHMPE, Black');
#292=DESCRIPTIVE_REPRESENTATION_ITEM('AISI 304','AISI 304');
#293=PROPERTY_DEFINITION('material property','material name',#602);
#294=PROPERTY_DEFINITION('material property','density of part',#602);
#295=PROPERTY_DEFINITION('material property','material name',#603);
#296=PROPERTY_DEFINITION('material property','density of part',#603);
#297=PRESENTATION_STYLE_ASSIGNMENT((#305));
#298=PRESENTATION_STYLE_ASSIGNMENT((#306));
#299=PRESENTATION_STYLE_ASSIGNMENT((NULL_STYLE(.NULL.)));
#300=PRESENTATION_STYLE_ASSIGNMENT((NULL_STYLE(.NULL.)));
#301=PRESENTATION_STYLE_ASSIGNMENT((NULL_STYLE(.NULL.)));
#302=PRESENTATION_STYLE_ASSIGNMENT((NULL_STYLE(.NULL.)));
#303=PRESENTATION_STYLE_ASSIGNMENT((#307));
#304=PRESENTATION_STYLE_ASSIGNMENT((NULL_STYLE(.NULL.)));
#305=SURFACE_STYLE_USAGE(.BOTH.,#312);
#306=SURFACE_STYLE_USAGE(.BOTH.,#313);
#307=SURFACE_STYLE_USAGE(.BOTH.,#314);
#308=SURFACE_STYLE_RENDERING_WITH_PROPERTIES($,#324,(#310));
#309=SURFACE_STYLE_RENDERING_WITH_PROPERTIES($,#326,(#311));
#310=SURFACE_STYLE_TRANSPARENT(0.);
#311=SURFACE_STYLE_TRANSPARENT(0.);
#312=SURFACE_SIDE_STYLE('',(#315,#308));
#313=SURFACE_SIDE_STYLE('',(#316));
#314=SURFACE_SIDE_STYLE('',(#317,#309));
#315=SURFACE_STYLE_FILL_AREA(#318);
#316=SURFACE_STYLE_FILL_AREA(#319);
#317=SURFACE_STYLE_FILL_AREA(#320);
#318=FILL_AREA_STYLE('',(#321));
#319=FILL_AREA_STYLE('',(#322));
#320=FILL_AREA_STYLE('',(#323));
#321=FILL_AREA_STYLE_COLOUR('',#324);
#322=FILL_AREA_STYLE_COLOUR('',#325);
#323=FILL_AREA_STYLE_COLOUR('',#326);
#324=COLOUR_RGB('',0.,0.,0.);
#325=COLOUR_RGB('',0.,0.250980392156863,0.501960784313725);
#326=COLOUR_RGB('',0.745098039215686,0.737254901960784,0.729411764705882);
#327=DATE_TIME_ROLE('creation_date');
#328=DATE_TIME_ROLE('creation_date');
#329=DATE_TIME_ROLE('creation_date');
#330=APPLIED_DATE_AND_TIME_ASSIGNMENT(#333,#327,(#601));
#331=APPLIED_DATE_AND_TIME_ASSIGNMENT(#334,#328,(#602));
#332=APPLIED_DATE_AND_TIME_ASSIGNMENT(#335,#329,(#603));
#333=DATE_AND_TIME(#336,#339);
#334=DATE_AND_TIME(#337,#340);
#335=DATE_AND_TIME(#338,#341);
#336=CALENDAR_DATE(2020,12,8);
#337=CALENDAR_DATE(2020,12,8);
#338=CALENDAR_DATE(2020,12,8);
#339=LOCAL_TIME(12,20,24.,#342);
#340=LOCAL_TIME(12,19,7.,#343);
#341=LOCAL_TIME(12,19,1.,#344);
#342=COORDINATED_UNIVERSAL_TIME_OFFSET(0,0,.BEHIND.);
#343=COORDINATED_UNIVERSAL_TIME_OFFSET(0,0,.BEHIND.);
#344=COORDINATED_UNIVERSAL_TIME_OFFSET(0,0,.BEHIND.);
#345=AXIS2_PLACEMENT_3D('placement',#492,#392,#393);
#346=AXIS2_PLACEMENT_3D('placement',#493,#394,#395);
#347=AXIS2_PLACEMENT_3D('',#494,#396,#397);
#348=AXIS2_PLACEMENT_3D('',#497,#398,#399);
#349=AXIS2_PLACEMENT_3D('',#499,#400,#401);
#350=AXIS2_PLACEMENT_3D('',#501,#402,#403);
#351=AXIS2_PLACEMENT_3D('',#502,#404,#405);
#352=AXIS2_PLACEMENT_3D('',#503,#406,#407);
#353=AXIS2_PLACEMENT_3D('',#504,#408,#409);
#354=AXIS2_PLACEMENT_3D('',#508,#411,#412);
#355=AXIS2_PLACEMENT_3D('',#509,#413,#414);
#356=AXIS2_PLACEMENT_3D('',#510,#415,#416);
#357=AXIS2_PLACEMENT_3D('',#512,#417,#418);
#358=AXIS2_PLACEMENT_3D('',#513,#419,#420);
#359=AXIS2_PLACEMENT_3D('',#516,#421,#422);
#360=AXIS2_PLACEMENT_3D('',#517,#423,#424);
#361=AXIS2_PLACEMENT_3D('',#518,#425,#426);
#362=AXIS2_PLACEMENT_3D('',#519,#427,#428);
#363=AXIS2_PLACEMENT_3D('',#521,#429,#430);
#364=AXIS2_PLACEMENT_3D('',#522,#431,#432);
#365=AXIS2_PLACEMENT_3D('',#525,#433,#434);
#366=AXIS2_PLACEMENT_3D('',#526,#435,#436);
#367=AXIS2_PLACEMENT_3D('',#529,#437,#438);
#368=AXIS2_PLACEMENT_3D('',#530,#439,#440);
#369=AXIS2_PLACEMENT_3D('',#531,#441,#442);
#370=AXIS2_PLACEMENT_3D('',#535,#444,#445);
#371=AXIS2_PLACEMENT_3D('',#536,#446,#447);
#372=AXIS2_PLACEMENT_3D('',#537,#448,#449);
#373=AXIS2_PLACEMENT_3D('',#540,#450,#451);
#374=AXIS2_PLACEMENT_3D('',#541,#452,#453);
#375=AXIS2_PLACEMENT_3D('',#542,#454,#455);
#376=AXIS2_PLACEMENT_3D('',#544,#457,#458);
#377=AXIS2_PLACEMENT_3D('',#546,#460,#461);
#378=AXIS2_PLACEMENT_3D('',#547,#462,#463);
#379=AXIS2_PLACEMENT_3D('placement',#558,#464,#465);
#380=AXIS2_PLACEMENT_3D('',#559,#466,#467);
#381=AXIS2_PLACEMENT_3D('',#561,#468,#469);
#382=AXIS2_PLACEMENT_3D('',#564,#471,#472);
#383=AXIS2_PLACEMENT_3D('',#565,#473,#474);
#384=AXIS2_PLACEMENT_3D('',#567,#475,#476);
#385=AXIS2_PLACEMENT_3D('',#568,#477,#478);
#386=AXIS2_PLACEMENT_3D('',#570,#479,#480);
#387=AXIS2_PLACEMENT_3D('',#572,#482,#483);
#388=AXIS2_PLACEMENT_3D('',#573,#484,#485);
#389=AXIS2_PLACEMENT_3D('',#574,#486,#487);
#390=AXIS2_PLACEMENT_3D('',#575,#488,#489);
#391=AXIS2_PLACEMENT_3D('',#576,#490,#491);
#392=DIRECTION('axis',(0.,0.,1.));
#393=DIRECTION('refdir',(1.,0.,0.));
#394=DIRECTION('axis',(0.,0.,1.));
#395=DIRECTION('refdir',(1.,0.,0.));
#396=DIRECTION('center_axis',(0.,1.,0.));
#397=DIRECTION('ref_axis',(0.,0.,1.));
#398=DIRECTION('center_axis',(0.,-1.,0.));
#399=DIRECTION('ref_axis',(1.,0.,0.));
#400=DIRECTION('center_axis',(-1.,0.,1.22464679914735E-16));
#401=DIRECTION('ref_axis',(-1.22464679914735E-16,0.,-1.));
#402=DIRECTION('center_axis',(0.,1.,0.));
#403=DIRECTION('ref_axis',(1.,0.,0.));
#404=DIRECTION('center_axis',(0.,1.,0.));
#405=DIRECTION('ref_axis',(1.,0.,0.));
#406=DIRECTION('center_axis',(0.,-1.,0.));
#407=DIRECTION('ref_axis',(1.,0.,0.));
#408=DIRECTION('center_axis',(0.,1.,0.));
#409=DIRECTION('ref_axis',(1.,0.,0.));
#410=DIRECTION('',(0.,-1.,0.));
#411=DIRECTION('center_axis',(0.,-1.,0.));
#412=DIRECTION('ref_axis',(1.,0.,0.));
#413=DIRECTION('center_axis',(0.,-1.,0.));
#414=DIRECTION('ref_axis',(1.,0.,0.));
#415=DIRECTION('center_axis',(0.,1.,0.));
#416=DIRECTION('ref_axis',(0.,0.,1.));
#417=DIRECTION('center_axis',(0.,-1.,0.));
#418=DIRECTION('ref_axis',(1.,0.,0.));
#419=DIRECTION('center_axis',(0.,-1.,0.));
#420=DIRECTION('ref_axis',(0.,0.,-1.));
#421=DIRECTION('center_axis',(0.,1.,0.));
#422=DIRECTION('ref_axis',(1.,0.,0.));
#423=DIRECTION('center_axis',(-1.,0.,-1.22464679914735E-16));
#424=DIRECTION('ref_axis',(-1.22464679914735E-16,0.,1.));
#425=DIRECTION('center_axis',(0.,1.,0.));
#426=DIRECTION('ref_axis',(1.,0.,0.));
#427=DIRECTION('center_axis',(0.,1.,0.));
#428=DIRECTION('ref_axis',(0.,0.,1.));
#429=DIRECTION('center_axis',(0.,1.,0.));
#430=DIRECTION('ref_axis',(1.,0.,0.));
#431=DIRECTION('center_axis',(0.,1.,0.));
#432=DIRECTION('ref_axis',(0.,0.,1.));
#433=DIRECTION('center_axis',(0.,-1.,0.));
#434=DIRECTION('ref_axis',(1.,0.,0.));
#435=DIRECTION('center_axis',(0.,-1.,0.));
#436=DIRECTION('ref_axis',(1.,0.,0.));
#437=DIRECTION('center_axis',(0.,-1.,0.));
#438=DIRECTION('ref_axis',(1.,0.,0.));
#439=DIRECTION('center_axis',(0.,-1.,0.));
#440=DIRECTION('ref_axis',(1.,0.,0.));
#441=DIRECTION('center_axis',(0.,-1.,0.));
#442=DIRECTION('ref_axis',(0.,0.,-1.));
#443=DIRECTION('',(0.,-1.,0.));
#444=DIRECTION('center_axis',(0.,-1.,0.));
#445=DIRECTION('ref_axis',(1.,0.,0.));
#446=DIRECTION('center_axis',(0.,-1.,0.));
#447=DIRECTION('ref_axis',(1.,0.,0.));
#448=DIRECTION('center_axis',(0.,-1.,0.));
#449=DIRECTION('ref_axis',(0.,0.,-1.));
#450=DIRECTION('center_axis',(0.,1.,0.));
#451=DIRECTION('ref_axis',(1.,0.,0.));
#452=DIRECTION('center_axis',(0.,1.,0.));
#453=DIRECTION('ref_axis',(1.,0.,0.));
#454=DIRECTION('center_axis',(0.,1.,0.));
#455=DIRECTION('ref_axis',(1.,0.,0.));
#456=DIRECTION('',(0.,1.,0.));
#457=DIRECTION('center_axis',(0.,1.,0.));
#458=DIRECTION('ref_axis',(1.,0.,0.));
#459=DIRECTION('',(0.,1.,0.));
#460=DIRECTION('center_axis',(0.,1.,0.));
#461=DIRECTION('ref_axis',(-1.,0.,0.));
#462=DIRECTION('center_axis',(0.,1.,0.));
#463=DIRECTION('ref_axis',(-1.,0.,0.));
#464=DIRECTION('axis',(0.,0.,1.));
#465=DIRECTION('refdir',(1.,0.,0.));
#466=DIRECTION('center_axis',(0.,1.,0.));
#467=DIRECTION('ref_axis',(1.,0.,0.));
#468=DIRECTION('center_axis',(0.,1.,0.));
#469=DIRECTION('ref_axis',(1.,0.,0.));
#470=DIRECTION('',(0.,1.,0.));
#471=DIRECTION('center_axis',(0.,-1.,0.));
#472=DIRECTION('ref_axis',(1.,0.,0.));
#473=DIRECTION('center_axis',(0.,1.,0.));
#474=DIRECTION('ref_axis',(0.,0.,1.));
#475=DIRECTION('center_axis',(0.,-1.,0.));
#476=DIRECTION('ref_axis',(1.,0.,0.));
#477=DIRECTION('center_axis',(0.,1.,0.));
#478=DIRECTION('ref_axis',(1.,0.,0.));
#479=DIRECTION('center_axis',(0.,1.,0.));
#480=DIRECTION('ref_axis',(1.,0.,0.));
#481=DIRECTION('',(0.,-1.,0.));
#482=DIRECTION('center_axis',(0.,1.,0.));
#483=DIRECTION('ref_axis',(0.,0.,1.));
#484=DIRECTION('center_axis',(0.,1.,0.));
#485=DIRECTION('ref_axis',(-1.,0.,0.));
#486=DIRECTION('center_axis',(0.,1.,0.));
#487=DIRECTION('ref_axis',(-1.,0.,0.));
#488=DIRECTION('',(0.,0.,1.));
#489=DIRECTION('',(1.,0.,0.));
#490=DIRECTION('',(-4.12645819898309E-16,3.2612801348361E-16,1.));
#491=DIRECTION('',(1.,-3.31259950434605E-32,4.12645819898309E-16));
#492=CARTESIAN_POINT('',(0.,0.,0.));
#493=CARTESIAN_POINT('',(0.,0.,0.));
#494=CARTESIAN_POINT('Origin',(0.,3.3,0.));
#495=CARTESIAN_POINT('',(-28.,3.8,-3.42901103761259E-15));
#496=CARTESIAN_POINT('',(-3.42901103761259E-15,3.8,-28.));
#497=CARTESIAN_POINT('Origin',(0.,3.8,0.));
#498=CARTESIAN_POINT('',(-3.49024337756996E-15,3.3,-28.5));
#499=CARTESIAN_POINT('Origin',(-3.42901103761259E-15,3.3,-28.));
#500=CARTESIAN_POINT('',(-28.5,3.3,3.49024337756996E-15));
#501=CARTESIAN_POINT('Origin',(0.,3.3,0.));
#502=CARTESIAN_POINT('Origin',(0.,3.3,0.));
#503=CARTESIAN_POINT('Origin',(0.,3.8,0.));
#504=CARTESIAN_POINT('Origin',(0.,0.,0.));
#505=CARTESIAN_POINT('',(-28.5,-3.3,-3.49024337756996E-15));
#506=CARTESIAN_POINT('',(-28.5,0.,3.49024337756996E-15));
#507=CARTESIAN_POINT('',(-3.49024337756996E-15,-3.3,28.5));
#508=CARTESIAN_POINT('Origin',(0.,-3.3,0.));
#509=CARTESIAN_POINT('Origin',(0.,-3.3,0.));
#510=CARTESIAN_POINT('Origin',(2.90853614797496E-16,3.8,0.));
#511=CARTESIAN_POINT('',(-12.5,3.8,1.53080849893419E-15));
#512=CARTESIAN_POINT('Origin',(0.,3.8,0.));
#513=CARTESIAN_POINT('Origin',(0.,-3.3,0.));
#514=CARTESIAN_POINT('',(-28.,-3.8,3.42901103761259E-15));
#515=CARTESIAN_POINT('',(-3.42901103761259E-15,-3.8,28.));
#516=CARTESIAN_POINT('Origin',(0.,-3.8,0.));
#517=CARTESIAN_POINT('Origin',(-3.42901103761259E-15,-3.3,28.));
#518=CARTESIAN_POINT('Origin',(0.,-3.8,0.));
#519=CARTESIAN_POINT('Origin',(2.90853614797496E-16,-3.8,0.));
#520=CARTESIAN_POINT('',(-12.5,-3.8,1.53080849893419E-15));
#521=CARTESIAN_POINT('Origin',(0.,-3.8,0.));
#522=CARTESIAN_POINT('Origin',(0.,1.5,-21.));
#523=CARTESIAN_POINT('',(0.,1.5,-21.));
#524=CARTESIAN_POINT('',(-2.57175827820944E-15,1.5,21.));
#525=CARTESIAN_POINT('Origin',(0.,1.5,0.));
#526=CARTESIAN_POINT('Origin',(0.,1.5,0.));
#527=CARTESIAN_POINT('',(0.,1.5,-12.5));
#528=CARTESIAN_POINT('',(-12.5,1.5,1.53080849893419E-15));
#529=CARTESIAN_POINT('Origin',(0.,1.5,0.));
#530=CARTESIAN_POINT('Origin',(0.,1.5,0.));
#531=CARTESIAN_POINT('Origin',(0.,0.500000000000001,0.));
#532=CARTESIAN_POINT('',(-2.57175827820944E-15,-0.499999999999999,21.));
#533=CARTESIAN_POINT('',(-2.57175827820944E-15,0.500000000000001,21.));
#534=CARTESIAN_POINT('',(0.,-0.499999999999999,-21.));
#535=CARTESIAN_POINT('Origin',(0.,-0.499999999999999,0.));
#536=CARTESIAN_POINT('Origin',(0.,-0.499999999999999,0.));
#537=CARTESIAN_POINT('Origin',(0.,-0.500000000000001,-12.5));
#538=CARTESIAN_POINT('',(0.,-0.500000000000001,-12.5));
#539=CARTESIAN_POINT('',(-12.5,-0.500000000000001,1.53080849893419E-15));
#540=CARTESIAN_POINT('Origin',(0.,-0.500000000000001,0.));
#541=CARTESIAN_POINT('Origin',(0.,-0.500000000000001,0.));
#542=CARTESIAN_POINT('Origin',(0.,0.,0.));
#543=CARTESIAN_POINT('',(-12.5,0.,1.53080849893419E-15));
#544=CARTESIAN_POINT('Origin',(0.,0.,0.));
#545=CARTESIAN_POINT('',(-12.5,0.,1.53080849893419E-15));
#546=CARTESIAN_POINT('Origin',(0.,0.,0.));
#547=CARTESIAN_POINT('Origin',(0.,0.,0.));
#548=CARTESIAN_POINT('polyline point',(0.,0.,-12.5));
#549=CARTESIAN_POINT('polyline point',(0.,1.5,-12.5));
#550=CARTESIAN_POINT('polyline point',(0.,1.5,-12.5));
#551=CARTESIAN_POINT('polyline point',(0.,1.5,-21.));
#552=CARTESIAN_POINT('polyline point',(0.,1.5,-21.));
#553=CARTESIAN_POINT('polyline point',(0.,-0.499999999999999,-21.));
#554=CARTESIAN_POINT('polyline point',(0.,-0.499999999999999,-21.));
#555=CARTESIAN_POINT('polyline point',(0.,-0.500000000000001,-12.5));
#556=CARTESIAN_POINT('polyline point',(0.,0.,-12.5));
#557=CARTESIAN_POINT('polyline point',(0.,-0.500000000000001,-12.5));
#558=CARTESIAN_POINT('',(0.,0.,0.));
#559=CARTESIAN_POINT('Origin',(0.,0.,0.));
#560=CARTESIAN_POINT('',(-4.,-1.,4.89858719658941E-16));
#561=CARTESIAN_POINT('Origin',(0.,-1.,0.));
#562=CARTESIAN_POINT('',(-4.,1.,4.89858719658941E-16));
#563=CARTESIAN_POINT('',(-4.,0.,4.89858719658941E-16));
#564=CARTESIAN_POINT('Origin',(0.,1.,0.));
#565=CARTESIAN_POINT('Origin',(9.19216697549299E-16,-1.,0.));
#566=CARTESIAN_POINT('',(-21.,-1.,2.57175827820944E-15));
#567=CARTESIAN_POINT('Origin',(0.,-1.,0.));
#568=CARTESIAN_POINT('Origin',(0.,0.,0.));
#569=CARTESIAN_POINT('',(-21.,1.,2.57175827820944E-15));
#570=CARTESIAN_POINT('Origin',(0.,1.,0.));
#571=CARTESIAN_POINT('',(-21.,0.,2.57175827820944E-15));
#572=CARTESIAN_POINT('Origin',(9.19216697549299E-16,1.,0.));
#573=CARTESIAN_POINT('Origin',(0.,0.,0.));
#574=CARTESIAN_POINT('Origin',(0.,0.,0.));
#575=CARTESIAN_POINT('',(0.,0.,0.));
#576=CARTESIAN_POINT('',(3.46944695195361E-16,0.499999999999989,0.));
#577=UNCERTAINTY_MEASURE_WITH_UNIT(LENGTH_MEASURE(0.01),#585,
'DISTANCE_ACCURACY_VALUE',
'Maximum model space distance between geometric entities at asserted c
onnectivities');
#578=UNCERTAINTY_MEASURE_WITH_UNIT(LENGTH_MEASURE(0.01),#585,
'DISTANCE_ACCURACY_VALUE',
'Maximum model space distance between geometric entities at asserted c
onnectivities');
#579=UNCERTAINTY_MEASURE_WITH_UNIT(LENGTH_MEASURE(0.01),#585,
'DISTANCE_ACCURACY_VALUE',
'Maximum model space distance between geometric entities at asserted c
onnectivities');
#580=UNCERTAINTY_MEASURE_WITH_UNIT(LENGTH_MEASURE(0.01),#585,
'DISTANCE_ACCURACY_VALUE',
'Maximum model space distance between geometric entities at asserted c
onnectivities');
#581=(
GEOMETRIC_REPRESENTATION_CONTEXT(3)
GLOBAL_UNCERTAINTY_ASSIGNED_CONTEXT((#577))
GLOBAL_UNIT_ASSIGNED_CONTEXT((#585,#587,#588))
REPRESENTATION_CONTEXT('','3D')
);
#582=(
GEOMETRIC_REPRESENTATION_CONTEXT(3)
GLOBAL_UNCERTAINTY_ASSIGNED_CONTEXT((#578))
GLOBAL_UNIT_ASSIGNED_CONTEXT((#585,#587,#588))
REPRESENTATION_CONTEXT('','3D')
);
#583=(
GEOMETRIC_REPRESENTATION_CONTEXT(3)
GLOBAL_UNCERTAINTY_ASSIGNED_CONTEXT((#579))
GLOBAL_UNIT_ASSIGNED_CONTEXT((#585,#587,#588))
REPRESENTATION_CONTEXT('','3D')
);
#584=(
GEOMETRIC_REPRESENTATION_CONTEXT(3)
GLOBAL_UNCERTAINTY_ASSIGNED_CONTEXT((#580))
GLOBAL_UNIT_ASSIGNED_CONTEXT((#585,#587,#588))
REPRESENTATION_CONTEXT('','3D')
);
#585=(
LENGTH_UNIT()
NAMED_UNIT(*)
SI_UNIT(.MILLI.,.METRE.)
);
#586=(
LENGTH_UNIT()
NAMED_UNIT(*)
SI_UNIT(.CENTI.,.METRE.)
);
#587=(
NAMED_UNIT(*)
PLANE_ANGLE_UNIT()
SI_UNIT($,.RADIAN.)
);
#588=(
NAMED_UNIT(*)
SI_UNIT($,.STERADIAN.)
SOLID_ANGLE_UNIT()
);
#589=SHAPE_DEFINITION_REPRESENTATION(#592,#597);
#590=SHAPE_DEFINITION_REPRESENTATION(#593,#598);
#591=SHAPE_DEFINITION_REPRESENTATION(#594,#599);
#592=PRODUCT_DEFINITION_SHAPE('',$,#601);
#593=PRODUCT_DEFINITION_SHAPE('',$,#602);
#594=PRODUCT_DEFINITION_SHAPE('',$,#603);
#595=PRODUCT_DEFINITION_SHAPE($,$,#17);
#596=PRODUCT_DEFINITION_SHAPE($,$,#18);
#597=SHAPE_REPRESENTATION('',(#345,#390,#391),#581);
#598=SHAPE_REPRESENTATION('',(#346),#582);
#599=SHAPE_REPRESENTATION('',(#379),#583);
#600=PRODUCT_DEFINITION_CONTEXT('part definition',#611,'design');
#601=PRODUCT_DEFINITION('GM17557','GM17557',#604,#600);
#602=PRODUCT_DEFINITION('E0134789','E0134789',#605,#600);
#603=PRODUCT_DEFINITION('E0134790','E0134790',#606,#600);
#604=PRODUCT_DEFINITION_FORMATION('-',$,#613);
#605=PRODUCT_DEFINITION_FORMATION('-',$,#614);
#606=PRODUCT_DEFINITION_FORMATION('-',$,#615);
#607=PRODUCT_RELATED_PRODUCT_CATEGORY('GM17557','GM17557',(#613));
#608=PRODUCT_RELATED_PRODUCT_CATEGORY('E0134789','E0134789',(#614));
#609=PRODUCT_RELATED_PRODUCT_CATEGORY('E0134790','E0134790',(#615));
#610=APPLICATION_PROTOCOL_DEFINITION('international standard',
'ap242_managed_model_based_3d_engineering',2011,#611);
#611=APPLICATION_CONTEXT('Managed model based 3d engineering');
#612=PRODUCT_CONTEXT('part definition',#611,'mechanical');
#613=PRODUCT('GM17557','GM17557',$,(#612));
#614=PRODUCT('E0134789','E0134789',$,(#612));
#615=PRODUCT('E0134790','E0134790',$,(#612));
ENDSEC;
END-ISO-10303-21;
