ISO-10303-21;
HEADER;
/* Generated by software containing ST-Developer
 * from STEP Tools, Inc. (www.steptools.com) 
 */

FILE_DESCRIPTION(
/* description */ ('',
'CAx-IF Rec.Pracs.---Representation and Presentation of Product Manufa
cturing Information (PMI)---4.0---2014-10-13'),
/* implementation_level */ '2;1');

FILE_NAME(
/* name */ 
'C:\\Workspace\\Documents\\Products\\Handling\\Pot magnets\\GM17562\\G
M17562.stp',
/* time_stamp */ '2020-09-03T11:24:05+02:00',
/* author */ ('tm'),
/* organization */ (''),
/* preprocessor_version */ 'ST-DEVELOPER v17.2',
/* originating_system */ 'Autodesk Inventor 2019',
/* authorisation */ '');

FILE_SCHEMA (('AP242_MANAGED_MODEL_BASED_3D_ENGINEERING_MIM_LF { 1 0 10303 442 1 1 4 }'));
ENDSEC;

DATA;
#10=MECHANICAL_DESIGN_GEOMETRIC_PRESENTATION_REPRESENTATION('',(#36,#37,
#38,#39,#40,#41,#42,#43,#44,#45,#46,#47,#48,#49),#492);
#11=ITEM_DEFINED_TRANSFORMATION($,$,#300,#334);
#12=ITEM_DEFINED_TRANSFORMATION($,$,#323,#335);
#13=(
REPRESENTATION_RELATIONSHIP($,$,#506,#505)
REPRESENTATION_RELATIONSHIP_WITH_TRANSFORMATION(#11)
SHAPE_REPRESENTATION_RELATIONSHIP()
);
#14=(
REPRESENTATION_RELATIONSHIP($,$,#507,#505)
REPRESENTATION_RELATIONSHIP_WITH_TRANSFORMATION(#12)
SHAPE_REPRESENTATION_RELATIONSHIP()
);
#15=CONTEXT_DEPENDENT_SHAPE_REPRESENTATION(#13,#503);
#16=CONTEXT_DEPENDENT_SHAPE_REPRESENTATION(#14,#504);
#17=NEXT_ASSEMBLY_USAGE_OCCURRENCE('E0134512:1','E0134512:1',
'E0134512:1',#509,#510,'E0134512:1');
#18=NEXT_ASSEMBLY_USAGE_OCCURRENCE('E0134514:1','E0134514:1',
'E0134514:1',#509,#511,'E0134514:1');
#19=GEOMETRICALLY_BOUNDED_WIREFRAME_SHAPE_REPRESENTATION('',(#21,#22),#490);
#20=GEOMETRICALLY_BOUNDED_WIREFRAME_SHAPE_REPRESENTATION('',(#23),#491);
#21=GEOMETRIC_CURVE_SET('Sketch2',(#118,#119));
#22=GEOMETRIC_CURVE_SET('Sketch4',(#30,#31,#32,#33,#34));
#23=GEOMETRIC_CURVE_SET('Sketch2',(#124,#125));
#24=SHAPE_REPRESENTATION_RELATIONSHIP('SRR','None',#506,#28);
#25=SHAPE_REPRESENTATION_RELATIONSHIP('SRR','None',#506,#19);
#26=SHAPE_REPRESENTATION_RELATIONSHIP('SRR','None',#507,#29);
#27=SHAPE_REPRESENTATION_RELATIONSHIP('SRR','None',#507,#20);
#28=ADVANCED_BREP_SHAPE_REPRESENTATION('',(#50),#490);
#29=ADVANCED_BREP_SHAPE_REPRESENTATION('',(#51),#491);
#30=POLYLINE('',(#456,#457));
#31=POLYLINE('',(#458,#459));
#32=POLYLINE('',(#460,#461));
#33=POLYLINE('',(#462,#463));
#34=POLYLINE('',(#464,#465));
#35=INVISIBILITY((#37,#38,#39,#40,#41,#42,#43,#44,#45,#47,#48,#49));
#36=STYLED_ITEM('',(#251),#50);
#37=STYLED_ITEM('',(#252),#118);
#38=STYLED_ITEM('',(#252),#119);
#39=STYLED_ITEM('',(#252),#30);
#40=STYLED_ITEM('',(#252),#31);
#41=STYLED_ITEM('',(#253),#32);
#42=STYLED_ITEM('',(#252),#33);
#43=STYLED_ITEM('',(#254),#34);
#44=STYLED_ITEM('',(#255),#21);
#45=STYLED_ITEM('',(#256),#22);
#46=STYLED_ITEM('',(#257),#51);
#47=STYLED_ITEM('',(#252),#124);
#48=STYLED_ITEM('',(#252),#125);
#49=STYLED_ITEM('',(#258),#23);
#50=MANIFOLD_SOLID_BREP('Solid2',#226);
#51=MANIFOLD_SOLID_BREP('Solid2',#227);
#52=LINE('',#429,#58);
#53=LINE('',#441,#59);
#54=LINE('',#444,#60);
#55=LINE('',#452,#61);
#56=LINE('',#471,#62);
#57=LINE('',#479,#63);
#58=VECTOR('',#352,21.);
#59=VECTOR('',#367,11.);
#60=VECTOR('',#370,11.);
#61=VECTOR('',#381,33.);
#62=VECTOR('',#394,2.75);
#63=VECTOR('',#405,21.);
#64=CYLINDRICAL_SURFACE('',#306,21.);
#65=CYLINDRICAL_SURFACE('',#312,11.);
#66=CYLINDRICAL_SURFACE('',#314,11.);
#67=CYLINDRICAL_SURFACE('',#318,33.);
#68=CYLINDRICAL_SURFACE('',#324,2.75);
#69=CYLINDRICAL_SURFACE('',#329,21.);
#70=FACE_BOUND('',#89,.T.);
#71=FACE_BOUND('',#92,.T.);
#72=FACE_BOUND('',#96,.T.);
#73=FACE_BOUND('',#99,.T.);
#74=FACE_BOUND('',#102,.T.);
#75=FACE_BOUND('',#105,.T.);
#76=FACE_OUTER_BOUND('',#88,.T.);
#77=FACE_OUTER_BOUND('',#90,.T.);
#78=FACE_OUTER_BOUND('',#91,.T.);
#79=FACE_OUTER_BOUND('',#93,.T.);
#80=FACE_OUTER_BOUND('',#94,.T.);
#81=FACE_OUTER_BOUND('',#95,.T.);
#82=FACE_OUTER_BOUND('',#97,.T.);
#83=FACE_OUTER_BOUND('',#98,.T.);
#84=FACE_OUTER_BOUND('',#100,.T.);
#85=FACE_OUTER_BOUND('',#101,.T.);
#86=FACE_OUTER_BOUND('',#103,.T.);
#87=FACE_OUTER_BOUND('',#104,.T.);
#88=EDGE_LOOP('',(#164,#165));
#89=EDGE_LOOP('',(#166,#167));
#90=EDGE_LOOP('',(#168,#169,#170,#171,#172,#173));
#91=EDGE_LOOP('',(#174,#175));
#92=EDGE_LOOP('',(#176,#177));
#93=EDGE_LOOP('',(#178,#179,#180,#181,#182));
#94=EDGE_LOOP('',(#183,#184,#185,#186,#187));
#95=EDGE_LOOP('',(#188));
#96=EDGE_LOOP('',(#189));
#97=EDGE_LOOP('',(#190,#191,#192,#193));
#98=EDGE_LOOP('',(#194));
#99=EDGE_LOOP('',(#195));
#100=EDGE_LOOP('',(#196,#197,#198,#199));
#101=EDGE_LOOP('',(#200));
#102=EDGE_LOOP('',(#201));
#103=EDGE_LOOP('',(#202,#203,#204,#205));
#104=EDGE_LOOP('',(#206));
#105=EDGE_LOOP('',(#207));
#106=CIRCLE('',#302,21.);
#107=CIRCLE('',#303,21.);
#108=CIRCLE('',#304,11.);
#109=CIRCLE('',#305,11.);
#110=CIRCLE('',#307,21.);
#111=CIRCLE('',#308,21.);
#112=CIRCLE('',#310,11.);
#113=CIRCLE('',#311,11.);
#114=CIRCLE('',#313,11.);
#115=CIRCLE('',#315,11.);
#116=CIRCLE('',#317,33.);
#117=CIRCLE('',#319,33.);
#118=CIRCLE('',#321,33.);
#119=CIRCLE('',#322,11.);
#120=CIRCLE('',#325,2.75);
#121=CIRCLE('',#326,2.75);
#122=CIRCLE('',#328,21.);
#123=CIRCLE('',#330,21.);
#124=CIRCLE('',#332,21.);
#125=CIRCLE('',#333,2.75);
#126=VERTEX_POINT('',#419);
#127=VERTEX_POINT('',#420);
#128=VERTEX_POINT('',#423);
#129=VERTEX_POINT('',#424);
#130=VERTEX_POINT('',#428);
#131=VERTEX_POINT('',#430);
#132=VERTEX_POINT('',#434);
#133=VERTEX_POINT('',#435);
#134=VERTEX_POINT('',#439);
#135=VERTEX_POINT('',#443);
#136=VERTEX_POINT('',#447);
#137=VERTEX_POINT('',#450);
#138=VERTEX_POINT('',#468);
#139=VERTEX_POINT('',#470);
#140=VERTEX_POINT('',#474);
#141=VERTEX_POINT('',#477);
#142=EDGE_CURVE('',#126,#127,#106,.T.);
#143=EDGE_CURVE('',#127,#126,#107,.T.);
#144=EDGE_CURVE('',#128,#129,#108,.T.);
#145=EDGE_CURVE('',#129,#128,#109,.T.);
#146=EDGE_CURVE('',#127,#130,#52,.T.);
#147=EDGE_CURVE('',#130,#131,#110,.T.);
#148=EDGE_CURVE('',#131,#130,#111,.T.);
#149=EDGE_CURVE('',#132,#133,#112,.T.);
#150=EDGE_CURVE('',#133,#132,#113,.T.);
#151=EDGE_CURVE('',#134,#134,#114,.T.);
#152=EDGE_CURVE('',#134,#133,#53,.T.);
#153=EDGE_CURVE('',#129,#135,#54,.T.);
#154=EDGE_CURVE('',#135,#135,#115,.T.);
#155=EDGE_CURVE('',#136,#136,#116,.T.);
#156=EDGE_CURVE('',#137,#137,#117,.T.);
#157=EDGE_CURVE('',#137,#136,#55,.T.);
#158=EDGE_CURVE('',#138,#138,#120,.T.);
#159=EDGE_CURVE('',#138,#139,#56,.T.);
#160=EDGE_CURVE('',#139,#139,#121,.T.);
#161=EDGE_CURVE('',#140,#140,#122,.T.);
#162=EDGE_CURVE('',#141,#141,#123,.T.);
#163=EDGE_CURVE('',#141,#140,#57,.T.);
#164=ORIENTED_EDGE('',*,*,#142,.T.);
#165=ORIENTED_EDGE('',*,*,#143,.T.);
#166=ORIENTED_EDGE('',*,*,#144,.F.);
#167=ORIENTED_EDGE('',*,*,#145,.F.);
#168=ORIENTED_EDGE('',*,*,#142,.F.);
#169=ORIENTED_EDGE('',*,*,#143,.F.);
#170=ORIENTED_EDGE('',*,*,#146,.T.);
#171=ORIENTED_EDGE('',*,*,#147,.T.);
#172=ORIENTED_EDGE('',*,*,#148,.T.);
#173=ORIENTED_EDGE('',*,*,#146,.F.);
#174=ORIENTED_EDGE('',*,*,#148,.F.);
#175=ORIENTED_EDGE('',*,*,#147,.F.);
#176=ORIENTED_EDGE('',*,*,#149,.F.);
#177=ORIENTED_EDGE('',*,*,#150,.F.);
#178=ORIENTED_EDGE('',*,*,#151,.F.);
#179=ORIENTED_EDGE('',*,*,#152,.T.);
#180=ORIENTED_EDGE('',*,*,#150,.T.);
#181=ORIENTED_EDGE('',*,*,#149,.T.);
#182=ORIENTED_EDGE('',*,*,#152,.F.);
#183=ORIENTED_EDGE('',*,*,#144,.T.);
#184=ORIENTED_EDGE('',*,*,#153,.T.);
#185=ORIENTED_EDGE('',*,*,#154,.F.);
#186=ORIENTED_EDGE('',*,*,#153,.F.);
#187=ORIENTED_EDGE('',*,*,#145,.T.);
#188=ORIENTED_EDGE('',*,*,#155,.T.);
#189=ORIENTED_EDGE('',*,*,#151,.T.);
#190=ORIENTED_EDGE('',*,*,#156,.F.);
#191=ORIENTED_EDGE('',*,*,#157,.T.);
#192=ORIENTED_EDGE('',*,*,#155,.F.);
#193=ORIENTED_EDGE('',*,*,#157,.F.);
#194=ORIENTED_EDGE('',*,*,#156,.T.);
#195=ORIENTED_EDGE('',*,*,#154,.T.);
#196=ORIENTED_EDGE('',*,*,#158,.F.);
#197=ORIENTED_EDGE('',*,*,#159,.T.);
#198=ORIENTED_EDGE('',*,*,#160,.F.);
#199=ORIENTED_EDGE('',*,*,#159,.F.);
#200=ORIENTED_EDGE('',*,*,#161,.T.);
#201=ORIENTED_EDGE('',*,*,#158,.T.);
#202=ORIENTED_EDGE('',*,*,#162,.F.);
#203=ORIENTED_EDGE('',*,*,#163,.T.);
#204=ORIENTED_EDGE('',*,*,#161,.F.);
#205=ORIENTED_EDGE('',*,*,#163,.F.);
#206=ORIENTED_EDGE('',*,*,#162,.T.);
#207=ORIENTED_EDGE('',*,*,#160,.T.);
#208=PLANE('',#301);
#209=PLANE('',#309);
#210=PLANE('',#316);
#211=PLANE('',#320);
#212=PLANE('',#327);
#213=PLANE('',#331);
#214=ADVANCED_FACE('',(#76,#70),#208,.F.);
#215=ADVANCED_FACE('',(#77),#64,.F.);
#216=ADVANCED_FACE('',(#78,#71),#209,.F.);
#217=ADVANCED_FACE('',(#79),#65,.F.);
#218=ADVANCED_FACE('',(#80),#66,.F.);
#219=ADVANCED_FACE('',(#81,#72),#210,.F.);
#220=ADVANCED_FACE('',(#82),#67,.T.);
#221=ADVANCED_FACE('',(#83,#73),#211,.T.);
#222=ADVANCED_FACE('',(#84),#68,.F.);
#223=ADVANCED_FACE('',(#85,#74),#212,.F.);
#224=ADVANCED_FACE('',(#86),#69,.T.);
#225=ADVANCED_FACE('',(#87,#75),#213,.T.);
#226=CLOSED_SHELL('',(#214,#215,#216,#217,#218,#219,#220,#221));
#227=CLOSED_SHELL('',(#222,#223,#224,#225));
#228=DERIVED_UNIT_ELEMENT(#232,1.);
#229=DERIVED_UNIT_ELEMENT(#494,3.);
#230=DERIVED_UNIT_ELEMENT(#232,1.);
#231=DERIVED_UNIT_ELEMENT(#494,3.);
#232=(
MASS_UNIT()
NAMED_UNIT(*)
SI_UNIT($,.GRAM.)
);
#233=DERIVED_UNIT((#228,#229));
#234=DERIVED_UNIT((#230,#231));
#235=MEASURE_REPRESENTATION_ITEM('density measure',
POSITIVE_RATIO_MEASURE(0.94),#233);
#236=MEASURE_REPRESENTATION_ITEM('density measure',
POSITIVE_RATIO_MEASURE(8.03),#234);
#237=PROPERTY_DEFINITION_REPRESENTATION(#247,#241);
#238=PROPERTY_DEFINITION_REPRESENTATION(#248,#242);
#239=PROPERTY_DEFINITION_REPRESENTATION(#249,#243);
#240=PROPERTY_DEFINITION_REPRESENTATION(#250,#244);
#241=REPRESENTATION('material name',(#245),#490);
#242=REPRESENTATION('density',(#235),#490);
#243=REPRESENTATION('material name',(#246),#491);
#244=REPRESENTATION('density',(#236),#491);
#245=DESCRIPTIVE_REPRESENTATION_ITEM('_Plastic UHMPE, Black',
'_Plastic UHMPE, Black');
#246=DESCRIPTIVE_REPRESENTATION_ITEM('AISI 304','AISI 304');
#247=PROPERTY_DEFINITION('material property','material name',#510);
#248=PROPERTY_DEFINITION('material property','density of part',#510);
#249=PROPERTY_DEFINITION('material property','material name',#511);
#250=PROPERTY_DEFINITION('material property','density of part',#511);
#251=PRESENTATION_STYLE_ASSIGNMENT((#259));
#252=PRESENTATION_STYLE_ASSIGNMENT((#260));
#253=PRESENTATION_STYLE_ASSIGNMENT((NULL_STYLE(.NULL.)));
#254=PRESENTATION_STYLE_ASSIGNMENT((NULL_STYLE(.NULL.)));
#255=PRESENTATION_STYLE_ASSIGNMENT((NULL_STYLE(.NULL.)));
#256=PRESENTATION_STYLE_ASSIGNMENT((NULL_STYLE(.NULL.)));
#257=PRESENTATION_STYLE_ASSIGNMENT((#261));
#258=PRESENTATION_STYLE_ASSIGNMENT((NULL_STYLE(.NULL.)));
#259=SURFACE_STYLE_USAGE(.BOTH.,#266);
#260=SURFACE_STYLE_USAGE(.BOTH.,#267);
#261=SURFACE_STYLE_USAGE(.BOTH.,#268);
#262=SURFACE_STYLE_RENDERING_WITH_PROPERTIES($,#278,(#264));
#263=SURFACE_STYLE_RENDERING_WITH_PROPERTIES($,#280,(#265));
#264=SURFACE_STYLE_TRANSPARENT(0.);
#265=SURFACE_STYLE_TRANSPARENT(0.);
#266=SURFACE_SIDE_STYLE('',(#269,#262));
#267=SURFACE_SIDE_STYLE('',(#270));
#268=SURFACE_SIDE_STYLE('',(#271,#263));
#269=SURFACE_STYLE_FILL_AREA(#272);
#270=SURFACE_STYLE_FILL_AREA(#273);
#271=SURFACE_STYLE_FILL_AREA(#274);
#272=FILL_AREA_STYLE('',(#275));
#273=FILL_AREA_STYLE('',(#276));
#274=FILL_AREA_STYLE('',(#277));
#275=FILL_AREA_STYLE_COLOUR('',#278);
#276=FILL_AREA_STYLE_COLOUR('',#279);
#277=FILL_AREA_STYLE_COLOUR('',#280);
#278=COLOUR_RGB('',0.,0.,0.);
#279=COLOUR_RGB('',0.,0.250980392156863,0.501960784313725);
#280=COLOUR_RGB('',0.745098039215686,0.737254901960784,0.729411764705882);
#281=DATE_TIME_ROLE('creation_date');
#282=DATE_TIME_ROLE('creation_date');
#283=DATE_TIME_ROLE('creation_date');
#284=APPLIED_DATE_AND_TIME_ASSIGNMENT(#287,#281,(#509));
#285=APPLIED_DATE_AND_TIME_ASSIGNMENT(#288,#282,(#510));
#286=APPLIED_DATE_AND_TIME_ASSIGNMENT(#289,#283,(#511));
#287=DATE_AND_TIME(#290,#293);
#288=DATE_AND_TIME(#291,#294);
#289=DATE_AND_TIME(#292,#295);
#290=CALENDAR_DATE(2020,3,8);
#291=CALENDAR_DATE(2020,3,8);
#292=CALENDAR_DATE(2020,2,8);
#293=LOCAL_TIME(9,16,23.,#296);
#294=LOCAL_TIME(9,34,9.,#297);
#295=LOCAL_TIME(22,0,0.,#298);
#296=COORDINATED_UNIVERSAL_TIME_OFFSET(0,0,.BEHIND.);
#297=COORDINATED_UNIVERSAL_TIME_OFFSET(0,0,.BEHIND.);
#298=COORDINATED_UNIVERSAL_TIME_OFFSET(0,0,.BEHIND.);
#299=AXIS2_PLACEMENT_3D('placement',#416,#336,#337);
#300=AXIS2_PLACEMENT_3D('placement',#417,#338,#339);
#301=AXIS2_PLACEMENT_3D('',#418,#340,#341);
#302=AXIS2_PLACEMENT_3D('',#421,#342,#343);
#303=AXIS2_PLACEMENT_3D('',#422,#344,#345);
#304=AXIS2_PLACEMENT_3D('',#425,#346,#347);
#305=AXIS2_PLACEMENT_3D('',#426,#348,#349);
#306=AXIS2_PLACEMENT_3D('',#427,#350,#351);
#307=AXIS2_PLACEMENT_3D('',#431,#353,#354);
#308=AXIS2_PLACEMENT_3D('',#432,#355,#356);
#309=AXIS2_PLACEMENT_3D('',#433,#357,#358);
#310=AXIS2_PLACEMENT_3D('',#436,#359,#360);
#311=AXIS2_PLACEMENT_3D('',#437,#361,#362);
#312=AXIS2_PLACEMENT_3D('',#438,#363,#364);
#313=AXIS2_PLACEMENT_3D('',#440,#365,#366);
#314=AXIS2_PLACEMENT_3D('',#442,#368,#369);
#315=AXIS2_PLACEMENT_3D('',#445,#371,#372);
#316=AXIS2_PLACEMENT_3D('',#446,#373,#374);
#317=AXIS2_PLACEMENT_3D('',#448,#375,#376);
#318=AXIS2_PLACEMENT_3D('',#449,#377,#378);
#319=AXIS2_PLACEMENT_3D('',#451,#379,#380);
#320=AXIS2_PLACEMENT_3D('',#453,#382,#383);
#321=AXIS2_PLACEMENT_3D('',#454,#384,#385);
#322=AXIS2_PLACEMENT_3D('',#455,#386,#387);
#323=AXIS2_PLACEMENT_3D('placement',#466,#388,#389);
#324=AXIS2_PLACEMENT_3D('',#467,#390,#391);
#325=AXIS2_PLACEMENT_3D('',#469,#392,#393);
#326=AXIS2_PLACEMENT_3D('',#472,#395,#396);
#327=AXIS2_PLACEMENT_3D('',#473,#397,#398);
#328=AXIS2_PLACEMENT_3D('',#475,#399,#400);
#329=AXIS2_PLACEMENT_3D('',#476,#401,#402);
#330=AXIS2_PLACEMENT_3D('',#478,#403,#404);
#331=AXIS2_PLACEMENT_3D('',#480,#406,#407);
#332=AXIS2_PLACEMENT_3D('',#481,#408,#409);
#333=AXIS2_PLACEMENT_3D('',#482,#410,#411);
#334=AXIS2_PLACEMENT_3D('',#483,#412,#413);
#335=AXIS2_PLACEMENT_3D('',#484,#414,#415);
#336=DIRECTION('axis',(0.,0.,1.));
#337=DIRECTION('refdir',(1.,0.,0.));
#338=DIRECTION('axis',(0.,0.,1.));
#339=DIRECTION('refdir',(1.,0.,0.));
#340=DIRECTION('center_axis',(0.,1.,0.));
#341=DIRECTION('ref_axis',(0.,0.,1.));
#342=DIRECTION('center_axis',(0.,-1.,0.));
#343=DIRECTION('ref_axis',(1.,0.,0.));
#344=DIRECTION('center_axis',(0.,-1.,0.));
#345=DIRECTION('ref_axis',(1.,0.,0.));
#346=DIRECTION('center_axis',(0.,-1.,0.));
#347=DIRECTION('ref_axis',(1.,0.,0.));
#348=DIRECTION('center_axis',(0.,-1.,0.));
#349=DIRECTION('ref_axis',(1.,0.,0.));
#350=DIRECTION('center_axis',(0.,-1.,0.));
#351=DIRECTION('ref_axis',(0.,0.,-1.));
#352=DIRECTION('',(0.,-1.,0.));
#353=DIRECTION('center_axis',(0.,-1.,0.));
#354=DIRECTION('ref_axis',(1.,0.,0.));
#355=DIRECTION('center_axis',(0.,-1.,0.));
#356=DIRECTION('ref_axis',(1.,0.,0.));
#357=DIRECTION('center_axis',(0.,-1.,0.));
#358=DIRECTION('ref_axis',(0.,0.,-1.));
#359=DIRECTION('center_axis',(0.,1.,0.));
#360=DIRECTION('ref_axis',(1.,0.,0.));
#361=DIRECTION('center_axis',(0.,1.,0.));
#362=DIRECTION('ref_axis',(1.,0.,0.));
#363=DIRECTION('center_axis',(0.,1.,0.));
#364=DIRECTION('ref_axis',(1.,0.,0.));
#365=DIRECTION('center_axis',(0.,1.,0.));
#366=DIRECTION('ref_axis',(1.,0.,0.));
#367=DIRECTION('',(0.,1.,0.));
#368=DIRECTION('center_axis',(0.,1.,0.));
#369=DIRECTION('ref_axis',(1.,0.,0.));
#370=DIRECTION('',(0.,1.,0.));
#371=DIRECTION('center_axis',(0.,-1.,0.));
#372=DIRECTION('ref_axis',(1.,0.,0.));
#373=DIRECTION('center_axis',(0.,1.,0.));
#374=DIRECTION('ref_axis',(0.,0.,1.));
#375=DIRECTION('center_axis',(0.,-1.,0.));
#376=DIRECTION('ref_axis',(1.,0.,0.));
#377=DIRECTION('center_axis',(0.,1.,0.));
#378=DIRECTION('ref_axis',(1.,0.,0.));
#379=DIRECTION('center_axis',(0.,1.,0.));
#380=DIRECTION('ref_axis',(1.,0.,0.));
#381=DIRECTION('',(0.,-1.,0.));
#382=DIRECTION('center_axis',(0.,1.,0.));
#383=DIRECTION('ref_axis',(0.,0.,1.));
#384=DIRECTION('center_axis',(0.,1.,0.));
#385=DIRECTION('ref_axis',(-1.,0.,0.));
#386=DIRECTION('center_axis',(0.,1.,0.));
#387=DIRECTION('ref_axis',(-1.,0.,0.));
#388=DIRECTION('axis',(0.,0.,1.));
#389=DIRECTION('refdir',(1.,0.,0.));
#390=DIRECTION('center_axis',(0.,1.,0.));
#391=DIRECTION('ref_axis',(1.,0.,0.));
#392=DIRECTION('center_axis',(0.,1.,0.));
#393=DIRECTION('ref_axis',(1.,0.,0.));
#394=DIRECTION('',(0.,1.,0.));
#395=DIRECTION('center_axis',(0.,-1.,0.));
#396=DIRECTION('ref_axis',(1.,0.,0.));
#397=DIRECTION('center_axis',(0.,1.,0.));
#398=DIRECTION('ref_axis',(0.,0.,1.));
#399=DIRECTION('center_axis',(0.,-1.,0.));
#400=DIRECTION('ref_axis',(1.,0.,0.));
#401=DIRECTION('center_axis',(0.,1.,0.));
#402=DIRECTION('ref_axis',(1.,0.,0.));
#403=DIRECTION('center_axis',(0.,1.,0.));
#404=DIRECTION('ref_axis',(1.,0.,0.));
#405=DIRECTION('',(0.,-1.,0.));
#406=DIRECTION('center_axis',(0.,1.,0.));
#407=DIRECTION('ref_axis',(0.,0.,1.));
#408=DIRECTION('center_axis',(0.,1.,0.));
#409=DIRECTION('ref_axis',(-1.,0.,0.));
#410=DIRECTION('center_axis',(0.,1.,0.));
#411=DIRECTION('ref_axis',(-1.,0.,0.));
#412=DIRECTION('',(0.,0.,1.));
#413=DIRECTION('',(1.,0.,0.));
#414=DIRECTION('',(-4.12645819898323E-16,1.19530656773838E-16,-1.));
#415=DIRECTION('',(1.,4.0245584642662E-16,-4.12645819898323E-16));
#416=CARTESIAN_POINT('',(0.,0.,0.));
#417=CARTESIAN_POINT('',(0.,0.,0.));
#418=CARTESIAN_POINT('Origin',(0.,0.950000000000008,-21.));
#419=CARTESIAN_POINT('',(0.,0.950000000000008,-21.));
#420=CARTESIAN_POINT('',(-2.57175827820944E-15,0.950000000000008,21.));
#421=CARTESIAN_POINT('Origin',(0.,0.950000000000008,0.));
#422=CARTESIAN_POINT('Origin',(0.,0.950000000000008,0.));
#423=CARTESIAN_POINT('',(0.,0.950000000000009,-11.));
#424=CARTESIAN_POINT('',(-11.,0.950000000000008,1.34711147906209E-15));
#425=CARTESIAN_POINT('Origin',(0.,0.950000000000008,0.));
#426=CARTESIAN_POINT('Origin',(0.,0.950000000000008,0.));
#427=CARTESIAN_POINT('Origin',(0.,-0.0499999999999926,0.));
#428=CARTESIAN_POINT('',(-2.57175827820944E-15,-1.04999999999999,21.));
#429=CARTESIAN_POINT('',(-2.57175827820944E-15,-0.0499999999999926,21.));
#430=CARTESIAN_POINT('',(0.,-1.04999999999999,-21.));
#431=CARTESIAN_POINT('Origin',(0.,-1.04999999999999,0.));
#432=CARTESIAN_POINT('Origin',(0.,-1.04999999999999,0.));
#433=CARTESIAN_POINT('Origin',(0.,-1.04999999999999,-11.));
#434=CARTESIAN_POINT('',(0.,-1.04999999999999,-11.));
#435=CARTESIAN_POINT('',(-11.,-1.04999999999999,1.34711147906209E-15));
#436=CARTESIAN_POINT('Origin',(0.,-1.04999999999999,0.));
#437=CARTESIAN_POINT('Origin',(0.,-1.04999999999999,0.));
#438=CARTESIAN_POINT('Origin',(0.,0.,0.));
#439=CARTESIAN_POINT('',(-11.,-4.25,1.34711147906209E-15));
#440=CARTESIAN_POINT('Origin',(0.,-4.25,0.));
#441=CARTESIAN_POINT('',(-11.,0.,1.34711147906209E-15));
#442=CARTESIAN_POINT('Origin',(0.,0.,0.));
#443=CARTESIAN_POINT('',(-11.,4.25,1.34711147906209E-15));
#444=CARTESIAN_POINT('',(-11.,0.,1.34711147906209E-15));
#445=CARTESIAN_POINT('Origin',(0.,4.25,0.));
#446=CARTESIAN_POINT('Origin',(2.13107770754355E-15,-4.25,0.));
#447=CARTESIAN_POINT('',(-33.,-4.25,4.04133443718627E-15));
#448=CARTESIAN_POINT('Origin',(0.,-4.25,0.));
#449=CARTESIAN_POINT('Origin',(0.,0.,0.));
#450=CARTESIAN_POINT('',(-33.,4.25,4.04133443718627E-15));
#451=CARTESIAN_POINT('Origin',(0.,4.25,0.));
#452=CARTESIAN_POINT('',(-33.,0.,4.04133443718627E-15));
#453=CARTESIAN_POINT('Origin',(2.13107770754355E-15,4.25,0.));
#454=CARTESIAN_POINT('Origin',(0.,0.,0.));
#455=CARTESIAN_POINT('Origin',(0.,0.,0.));
#456=CARTESIAN_POINT('polyline point',(0.,0.,-11.));
#457=CARTESIAN_POINT('polyline point',(0.,0.950000000000009,-11.));
#458=CARTESIAN_POINT('polyline point',(0.,0.950000000000009,-11.));
#459=CARTESIAN_POINT('polyline point',(0.,0.950000000000008,-21.));
#460=CARTESIAN_POINT('polyline point',(0.,0.950000000000008,-21.));
#461=CARTESIAN_POINT('polyline point',(0.,-1.04999999999999,-21.));
#462=CARTESIAN_POINT('polyline point',(0.,-1.04999999999999,-21.));
#463=CARTESIAN_POINT('polyline point',(0.,-1.04999999999999,-11.));
#464=CARTESIAN_POINT('polyline point',(0.,0.,-11.));
#465=CARTESIAN_POINT('polyline point',(0.,-1.04999999999999,-11.));
#466=CARTESIAN_POINT('',(0.,0.,0.));
#467=CARTESIAN_POINT('Origin',(0.,0.,0.));
#468=CARTESIAN_POINT('',(-2.75,-1.,3.36777869765522E-16));
#469=CARTESIAN_POINT('Origin',(0.,-1.,0.));
#470=CARTESIAN_POINT('',(-2.75,1.,3.36777869765522E-16));
#471=CARTESIAN_POINT('',(-2.75,0.,3.36777869765522E-16));
#472=CARTESIAN_POINT('Origin',(0.,1.,0.));
#473=CARTESIAN_POINT('Origin',(9.19216697549299E-16,-1.,0.));
#474=CARTESIAN_POINT('',(-21.,-1.,2.57175827820944E-15));
#475=CARTESIAN_POINT('Origin',(0.,-1.,0.));
#476=CARTESIAN_POINT('Origin',(0.,0.,0.));
#477=CARTESIAN_POINT('',(-21.,1.,2.57175827820944E-15));
#478=CARTESIAN_POINT('Origin',(0.,1.,0.));
#479=CARTESIAN_POINT('',(-21.,0.,2.57175827820944E-15));
#480=CARTESIAN_POINT('Origin',(9.19216697549299E-16,1.,0.));
#481=CARTESIAN_POINT('Origin',(0.,0.,0.));
#482=CARTESIAN_POINT('Origin',(0.,0.,0.));
#483=CARTESIAN_POINT('',(0.,0.,0.));
#484=CARTESIAN_POINT('',(-5.55111510244627E-17,-0.0499999999999946,1.19530656773838E-16));
#485=UNCERTAINTY_MEASURE_WITH_UNIT(LENGTH_MEASURE(0.01),#493,
'DISTANCE_ACCURACY_VALUE',
'Maximum model space distance between geometric entities at asserted c
onnectivities');
#486=UNCERTAINTY_MEASURE_WITH_UNIT(LENGTH_MEASURE(0.01),#493,
'DISTANCE_ACCURACY_VALUE',
'Maximum model space distance between geometric entities at asserted c
onnectivities');
#487=UNCERTAINTY_MEASURE_WITH_UNIT(LENGTH_MEASURE(0.01),#493,
'DISTANCE_ACCURACY_VALUE',
'Maximum model space distance between geometric entities at asserted c
onnectivities');
#488=UNCERTAINTY_MEASURE_WITH_UNIT(LENGTH_MEASURE(0.01),#493,
'DISTANCE_ACCURACY_VALUE',
'Maximum model space distance between geometric entities at asserted c
onnectivities');
#489=(
GEOMETRIC_REPRESENTATION_CONTEXT(3)
GLOBAL_UNCERTAINTY_ASSIGNED_CONTEXT((#485))
GLOBAL_UNIT_ASSIGNED_CONTEXT((#493,#495,#496))
REPRESENTATION_CONTEXT('','3D')
);
#490=(
GEOMETRIC_REPRESENTATION_CONTEXT(3)
GLOBAL_UNCERTAINTY_ASSIGNED_CONTEXT((#486))
GLOBAL_UNIT_ASSIGNED_CONTEXT((#493,#495,#496))
REPRESENTATION_CONTEXT('','3D')
);
#491=(
GEOMETRIC_REPRESENTATION_CONTEXT(3)
GLOBAL_UNCERTAINTY_ASSIGNED_CONTEXT((#487))
GLOBAL_UNIT_ASSIGNED_CONTEXT((#493,#495,#496))
REPRESENTATION_CONTEXT('','3D')
);
#492=(
GEOMETRIC_REPRESENTATION_CONTEXT(3)
GLOBAL_UNCERTAINTY_ASSIGNED_CONTEXT((#488))
GLOBAL_UNIT_ASSIGNED_CONTEXT((#493,#495,#496))
REPRESENTATION_CONTEXT('','3D')
);
#493=(
LENGTH_UNIT()
NAMED_UNIT(*)
SI_UNIT(.MILLI.,.METRE.)
);
#494=(
LENGTH_UNIT()
NAMED_UNIT(*)
SI_UNIT(.CENTI.,.METRE.)
);
#495=(
NAMED_UNIT(*)
PLANE_ANGLE_UNIT()
SI_UNIT($,.RADIAN.)
);
#496=(
NAMED_UNIT(*)
SI_UNIT($,.STERADIAN.)
SOLID_ANGLE_UNIT()
);
#497=SHAPE_DEFINITION_REPRESENTATION(#500,#505);
#498=SHAPE_DEFINITION_REPRESENTATION(#501,#506);
#499=SHAPE_DEFINITION_REPRESENTATION(#502,#507);
#500=PRODUCT_DEFINITION_SHAPE('',$,#509);
#501=PRODUCT_DEFINITION_SHAPE('',$,#510);
#502=PRODUCT_DEFINITION_SHAPE('',$,#511);
#503=PRODUCT_DEFINITION_SHAPE($,$,#17);
#504=PRODUCT_DEFINITION_SHAPE($,$,#18);
#505=SHAPE_REPRESENTATION('',(#299,#334,#335),#489);
#506=SHAPE_REPRESENTATION('',(#300),#490);
#507=SHAPE_REPRESENTATION('',(#323),#491);
#508=PRODUCT_DEFINITION_CONTEXT('part definition',#519,'design');
#509=PRODUCT_DEFINITION('GM17562','GM17562',#512,#508);
#510=PRODUCT_DEFINITION('E0134512','E0134512',#513,#508);
#511=PRODUCT_DEFINITION('E0134514','E0134514',#514,#508);
#512=PRODUCT_DEFINITION_FORMATION('',$,#521);
#513=PRODUCT_DEFINITION_FORMATION('',$,#522);
#514=PRODUCT_DEFINITION_FORMATION('-',$,#523);
#515=PRODUCT_RELATED_PRODUCT_CATEGORY('GM17562','GM17562',(#521));
#516=PRODUCT_RELATED_PRODUCT_CATEGORY('E0134512','E0134512',(#522));
#517=PRODUCT_RELATED_PRODUCT_CATEGORY('E0134514','E0134514',(#523));
#518=APPLICATION_PROTOCOL_DEFINITION('international standard',
'ap242_managed_model_based_3d_engineering',2011,#519);
#519=APPLICATION_CONTEXT('Managed model based 3d engineering');
#520=PRODUCT_CONTEXT('part definition',#519,'mechanical');
#521=PRODUCT('GM17562','GM17562',$,(#520));
#522=PRODUCT('E0134512','E0134512',$,(#520));
#523=PRODUCT('E0134514','E0134514',$,(#520));
ENDSEC;
END-ISO-10303-21;
