ISO-10303-21;
HEADER;
/* Generated by software containing ST-Developer
 * from STEP Tools, Inc. (www.steptools.com) 
 */

FILE_DESCRIPTION(
/* description */ ('',
'CAx-IF Rec.Pracs.---Representation and Presentation of Product Manufa
cturing Information (PMI)---4.0---2014-10-13'),
/* implementation_level */ '2;1');

FILE_NAME(
/* name */ 
'C:\\Workspace\\Documents\\Products\\Handling\\Pot magnets\\GM17563\\G
M17563.stp',
/* time_stamp */ '2020-09-03T11:24:45+02:00',
/* author */ ('tm'),
/* organization */ (''),
/* preprocessor_version */ 'ST-DEVELOPER v17.2',
/* originating_system */ 'Autodesk Inventor 2019',
/* authorisation */ '');

FILE_SCHEMA (('AP242_MANAGED_MODEL_BASED_3D_ENGINEERING_MIM_LF { 1 0 10303 442 1 1 4 }'));
ENDSEC;

DATA;
#10=MECHANICAL_DESIGN_GEOMETRIC_PRESENTATION_REPRESENTATION('',(#35,#36,
#37,#38,#39,#40,#41,#42,#43,#44,#45,#46),#572);
#11=ITEM_DEFINED_TRANSFORMATION($,$,#334,#380);
#12=ITEM_DEFINED_TRANSFORMATION($,$,#359,#381);
#13=(
REPRESENTATION_RELATIONSHIP($,$,#586,#585)
REPRESENTATION_RELATIONSHIP_WITH_TRANSFORMATION(#11)
SHAPE_REPRESENTATION_RELATIONSHIP()
);
#14=(
REPRESENTATION_RELATIONSHIP($,$,#587,#585)
REPRESENTATION_RELATIONSHIP_WITH_TRANSFORMATION(#12)
SHAPE_REPRESENTATION_RELATIONSHIP()
);
#15=CONTEXT_DEPENDENT_SHAPE_REPRESENTATION(#13,#583);
#16=CONTEXT_DEPENDENT_SHAPE_REPRESENTATION(#14,#584);
#17=NEXT_ASSEMBLY_USAGE_OCCURRENCE('E0135147:1','E0135147:1',
'E0135147:1',#589,#590,'E0135147:1');
#18=NEXT_ASSEMBLY_USAGE_OCCURRENCE('E0135148:1','E0135148:1',
'E0135148:1',#589,#591,'E0135148:1');
#19=CONICAL_SURFACE('',#360,2.875,0.785398163397448);
#20=CONICAL_SURFACE('',#367,4.9,0.785398163397448);
#21=GEOMETRICALLY_BOUNDED_WIREFRAME_SHAPE_REPRESENTATION('',(#23,#24,#25),
#570);
#22=GEOMETRICALLY_BOUNDED_WIREFRAME_SHAPE_REPRESENTATION('',(#26,#27),#571);
#23=GEOMETRIC_CURVE_SET('Sketch3',(#130));
#24=GEOMETRIC_CURVE_SET('Sketch5',(#131));
#25=GEOMETRIC_CURVE_SET('Sketch6',(#132));
#26=GEOMETRIC_CURVE_SET('Sketch2',(#143));
#27=GEOMETRIC_CURVE_SET('Sketch3',(#144));
#28=SHAPE_REPRESENTATION_RELATIONSHIP('SRR','None',#586,#32);
#29=SHAPE_REPRESENTATION_RELATIONSHIP('SRR','None',#586,#21);
#30=SHAPE_REPRESENTATION_RELATIONSHIP('SRR','None',#587,#33);
#31=SHAPE_REPRESENTATION_RELATIONSHIP('SRR','None',#587,#22);
#32=ADVANCED_BREP_SHAPE_REPRESENTATION('',(#47),#570);
#33=ADVANCED_BREP_SHAPE_REPRESENTATION('',(#48),#571);
#34=INVISIBILITY((#36,#37,#38,#39,#40,#41,#43,#44,#45,#46));
#35=STYLED_ITEM('',(#303),#47);
#36=STYLED_ITEM('',(#304),#130);
#37=STYLED_ITEM('',(#304),#131);
#38=STYLED_ITEM('',(#304),#132);
#39=STYLED_ITEM('',(#305),#23);
#40=STYLED_ITEM('',(#306),#24);
#41=STYLED_ITEM('',(#307),#25);
#42=STYLED_ITEM('',(#308),#48);
#43=STYLED_ITEM('',(#304),#143);
#44=STYLED_ITEM('',(#304),#144);
#45=STYLED_ITEM('',(#309),#26);
#46=STYLED_ITEM('',(#310),#27);
#47=MANIFOLD_SOLID_BREP('Solid2',#278);
#48=MANIFOLD_SOLID_BREP('Solid2',#279);
#49=TOROIDAL_SURFACE('',#343,32.5,0.5);
#50=TOROIDAL_SURFACE('',#351,32.5,0.5);
#51=FACE_BOUND('',#84,.T.);
#52=FACE_BOUND('',#90,.T.);
#53=FACE_BOUND('',#96,.T.);
#54=FACE_BOUND('',#98,.T.);
#55=FACE_BOUND('',#101,.T.);
#56=PLANE('',#338);
#57=PLANE('',#342);
#58=PLANE('',#350);
#59=PLANE('',#355);
#60=PLANE('',#372);
#61=PLANE('',#373);
#62=PLANE('',#377);
#63=FACE_OUTER_BOUND('',#80,.T.);
#64=FACE_OUTER_BOUND('',#81,.T.);
#65=FACE_OUTER_BOUND('',#82,.T.);
#66=FACE_OUTER_BOUND('',#83,.T.);
#67=FACE_OUTER_BOUND('',#85,.T.);
#68=FACE_OUTER_BOUND('',#86,.T.);
#69=FACE_OUTER_BOUND('',#87,.T.);
#70=FACE_OUTER_BOUND('',#88,.T.);
#71=FACE_OUTER_BOUND('',#89,.T.);
#72=FACE_OUTER_BOUND('',#91,.T.);
#73=FACE_OUTER_BOUND('',#92,.T.);
#74=FACE_OUTER_BOUND('',#93,.T.);
#75=FACE_OUTER_BOUND('',#94,.T.);
#76=FACE_OUTER_BOUND('',#95,.T.);
#77=FACE_OUTER_BOUND('',#97,.T.);
#78=FACE_OUTER_BOUND('',#99,.T.);
#79=FACE_OUTER_BOUND('',#100,.T.);
#80=EDGE_LOOP('',(#195,#196,#197,#198));
#81=EDGE_LOOP('',(#199));
#82=EDGE_LOOP('',(#200,#201,#202,#203));
#83=EDGE_LOOP('',(#204));
#84=EDGE_LOOP('',(#205));
#85=EDGE_LOOP('',(#206,#207,#208,#209));
#86=EDGE_LOOP('',(#210,#211,#212,#213,#214));
#87=EDGE_LOOP('',(#215));
#88=EDGE_LOOP('',(#216,#217,#218,#219,#220,#221));
#89=EDGE_LOOP('',(#222,#223));
#90=EDGE_LOOP('',(#224));
#91=EDGE_LOOP('',(#225,#226,#227,#228,#229,#230));
#92=EDGE_LOOP('',(#231,#232,#233,#234,#235));
#93=EDGE_LOOP('',(#236,#237,#238,#239));
#94=EDGE_LOOP('',(#240,#241,#242,#243));
#95=EDGE_LOOP('',(#244));
#96=EDGE_LOOP('',(#245,#246));
#97=EDGE_LOOP('',(#247));
#98=EDGE_LOOP('',(#248));
#99=EDGE_LOOP('',(#249,#250,#251,#252));
#100=EDGE_LOOP('',(#253));
#101=EDGE_LOOP('',(#254));
#102=LINE('',#494,#110);
#103=LINE('',#501,#111);
#104=LINE('',#514,#112);
#105=LINE('',#534,#113);
#106=LINE('',#540,#114);
#107=LINE('',#546,#115);
#108=LINE('',#550,#116);
#109=LINE('',#559,#117);
#110=VECTOR('',#390,5.);
#111=VECTOR('',#399,31.);
#112=VECTOR('',#416,33.);
#113=VECTOR('',#445,2.875);
#114=VECTOR('',#452,2.5);
#115=VECTOR('',#459,4.9);
#116=VECTOR('',#464,5.);
#117=VECTOR('',#477,9.);
#118=CIRCLE('',#336,5.);
#119=CIRCLE('',#337,5.);
#120=CIRCLE('',#339,31.);
#121=CIRCLE('',#341,31.);
#122=CIRCLE('',#344,32.5);
#123=CIRCLE('',#345,0.5);
#124=CIRCLE('',#346,33.);
#125=CIRCLE('',#348,33.);
#126=CIRCLE('',#349,33.);
#127=CIRCLE('',#352,32.5);
#128=CIRCLE('',#353,0.5);
#129=CIRCLE('',#354,32.5);
#130=CIRCLE('',#356,33.);
#131=CIRCLE('',#357,31.);
#132=CIRCLE('',#358,5.);
#133=CIRCLE('',#361,3.25);
#134=CIRCLE('',#362,3.25);
#135=CIRCLE('',#363,2.5);
#136=CIRCLE('',#364,2.5);
#137=CIRCLE('',#366,2.5);
#138=CIRCLE('',#368,4.8);
#139=CIRCLE('',#369,5.);
#140=CIRCLE('',#371,5.);
#141=CIRCLE('',#374,9.);
#142=CIRCLE('',#376,9.);
#143=CIRCLE('',#378,9.);
#144=CIRCLE('',#379,5.);
#145=VERTEX_POINT('',#491);
#146=VERTEX_POINT('',#493);
#147=VERTEX_POINT('',#497);
#148=VERTEX_POINT('',#500);
#149=VERTEX_POINT('',#505);
#150=VERTEX_POINT('',#507);
#151=VERTEX_POINT('',#511);
#152=VERTEX_POINT('',#512);
#153=VERTEX_POINT('',#518);
#154=VERTEX_POINT('',#519);
#155=VERTEX_POINT('',#529);
#156=VERTEX_POINT('',#530);
#157=VERTEX_POINT('',#533);
#158=VERTEX_POINT('',#535);
#159=VERTEX_POINT('',#539);
#160=VERTEX_POINT('',#543);
#161=VERTEX_POINT('',#545);
#162=VERTEX_POINT('',#549);
#163=VERTEX_POINT('',#554);
#164=VERTEX_POINT('',#557);
#165=EDGE_CURVE('',#145,#145,#118,.T.);
#166=EDGE_CURVE('',#145,#146,#102,.T.);
#167=EDGE_CURVE('',#146,#146,#119,.T.);
#168=EDGE_CURVE('',#147,#147,#120,.T.);
#169=EDGE_CURVE('',#147,#148,#103,.T.);
#170=EDGE_CURVE('',#148,#148,#121,.T.);
#171=EDGE_CURVE('',#149,#149,#122,.T.);
#172=EDGE_CURVE('',#149,#150,#123,.T.);
#173=EDGE_CURVE('',#150,#150,#124,.T.);
#174=EDGE_CURVE('',#151,#152,#125,.T.);
#175=EDGE_CURVE('',#151,#150,#104,.T.);
#176=EDGE_CURVE('',#152,#151,#126,.T.);
#177=EDGE_CURVE('',#153,#154,#127,.T.);
#178=EDGE_CURVE('',#154,#152,#128,.T.);
#179=EDGE_CURVE('',#154,#153,#129,.T.);
#180=EDGE_CURVE('',#155,#156,#133,.T.);
#181=EDGE_CURVE('',#156,#155,#134,.T.);
#182=EDGE_CURVE('',#156,#157,#105,.T.);
#183=EDGE_CURVE('',#158,#157,#135,.T.);
#184=EDGE_CURVE('',#157,#158,#136,.T.);
#185=EDGE_CURVE('',#157,#159,#106,.T.);
#186=EDGE_CURVE('',#159,#159,#137,.T.);
#187=EDGE_CURVE('',#160,#160,#138,.T.);
#188=EDGE_CURVE('',#160,#161,#107,.T.);
#189=EDGE_CURVE('',#161,#161,#139,.T.);
#190=EDGE_CURVE('',#161,#162,#108,.T.);
#191=EDGE_CURVE('',#162,#162,#140,.T.);
#192=EDGE_CURVE('',#163,#163,#141,.T.);
#193=EDGE_CURVE('',#164,#164,#142,.T.);
#194=EDGE_CURVE('',#164,#163,#109,.T.);
#195=ORIENTED_EDGE('',*,*,#165,.F.);
#196=ORIENTED_EDGE('',*,*,#166,.T.);
#197=ORIENTED_EDGE('',*,*,#167,.F.);
#198=ORIENTED_EDGE('',*,*,#166,.F.);
#199=ORIENTED_EDGE('',*,*,#168,.F.);
#200=ORIENTED_EDGE('',*,*,#168,.T.);
#201=ORIENTED_EDGE('',*,*,#169,.T.);
#202=ORIENTED_EDGE('',*,*,#170,.T.);
#203=ORIENTED_EDGE('',*,*,#169,.F.);
#204=ORIENTED_EDGE('',*,*,#170,.F.);
#205=ORIENTED_EDGE('',*,*,#167,.T.);
#206=ORIENTED_EDGE('',*,*,#171,.T.);
#207=ORIENTED_EDGE('',*,*,#172,.T.);
#208=ORIENTED_EDGE('',*,*,#173,.T.);
#209=ORIENTED_EDGE('',*,*,#172,.F.);
#210=ORIENTED_EDGE('',*,*,#174,.F.);
#211=ORIENTED_EDGE('',*,*,#175,.T.);
#212=ORIENTED_EDGE('',*,*,#173,.F.);
#213=ORIENTED_EDGE('',*,*,#175,.F.);
#214=ORIENTED_EDGE('',*,*,#176,.F.);
#215=ORIENTED_EDGE('',*,*,#171,.F.);
#216=ORIENTED_EDGE('',*,*,#177,.T.);
#217=ORIENTED_EDGE('',*,*,#178,.T.);
#218=ORIENTED_EDGE('',*,*,#176,.T.);
#219=ORIENTED_EDGE('',*,*,#174,.T.);
#220=ORIENTED_EDGE('',*,*,#178,.F.);
#221=ORIENTED_EDGE('',*,*,#179,.T.);
#222=ORIENTED_EDGE('',*,*,#177,.F.);
#223=ORIENTED_EDGE('',*,*,#179,.F.);
#224=ORIENTED_EDGE('',*,*,#165,.T.);
#225=ORIENTED_EDGE('',*,*,#180,.F.);
#226=ORIENTED_EDGE('',*,*,#181,.F.);
#227=ORIENTED_EDGE('',*,*,#182,.T.);
#228=ORIENTED_EDGE('',*,*,#183,.F.);
#229=ORIENTED_EDGE('',*,*,#184,.F.);
#230=ORIENTED_EDGE('',*,*,#182,.F.);
#231=ORIENTED_EDGE('',*,*,#183,.T.);
#232=ORIENTED_EDGE('',*,*,#185,.T.);
#233=ORIENTED_EDGE('',*,*,#186,.F.);
#234=ORIENTED_EDGE('',*,*,#185,.F.);
#235=ORIENTED_EDGE('',*,*,#184,.T.);
#236=ORIENTED_EDGE('',*,*,#187,.T.);
#237=ORIENTED_EDGE('',*,*,#188,.T.);
#238=ORIENTED_EDGE('',*,*,#189,.T.);
#239=ORIENTED_EDGE('',*,*,#188,.F.);
#240=ORIENTED_EDGE('',*,*,#189,.F.);
#241=ORIENTED_EDGE('',*,*,#190,.T.);
#242=ORIENTED_EDGE('',*,*,#191,.F.);
#243=ORIENTED_EDGE('',*,*,#190,.F.);
#244=ORIENTED_EDGE('',*,*,#187,.F.);
#245=ORIENTED_EDGE('',*,*,#180,.T.);
#246=ORIENTED_EDGE('',*,*,#181,.T.);
#247=ORIENTED_EDGE('',*,*,#192,.T.);
#248=ORIENTED_EDGE('',*,*,#186,.T.);
#249=ORIENTED_EDGE('',*,*,#193,.F.);
#250=ORIENTED_EDGE('',*,*,#194,.T.);
#251=ORIENTED_EDGE('',*,*,#192,.F.);
#252=ORIENTED_EDGE('',*,*,#194,.F.);
#253=ORIENTED_EDGE('',*,*,#193,.T.);
#254=ORIENTED_EDGE('',*,*,#191,.T.);
#255=CYLINDRICAL_SURFACE('',#335,5.);
#256=CYLINDRICAL_SURFACE('',#340,31.);
#257=CYLINDRICAL_SURFACE('',#347,33.);
#258=CYLINDRICAL_SURFACE('',#365,2.5);
#259=CYLINDRICAL_SURFACE('',#370,5.);
#260=CYLINDRICAL_SURFACE('',#375,9.);
#261=ADVANCED_FACE('',(#63),#255,.F.);
#262=ADVANCED_FACE('',(#64),#56,.T.);
#263=ADVANCED_FACE('',(#65),#256,.F.);
#264=ADVANCED_FACE('',(#66,#51),#57,.F.);
#265=ADVANCED_FACE('',(#67),#49,.T.);
#266=ADVANCED_FACE('',(#68),#257,.T.);
#267=ADVANCED_FACE('',(#69),#58,.F.);
#268=ADVANCED_FACE('',(#70),#50,.T.);
#269=ADVANCED_FACE('',(#71,#52),#59,.T.);
#270=ADVANCED_FACE('',(#72),#19,.F.);
#271=ADVANCED_FACE('',(#73),#258,.F.);
#272=ADVANCED_FACE('',(#74),#20,.T.);
#273=ADVANCED_FACE('',(#75),#259,.T.);
#274=ADVANCED_FACE('',(#76,#53),#60,.T.);
#275=ADVANCED_FACE('',(#77,#54),#61,.F.);
#276=ADVANCED_FACE('',(#78),#260,.T.);
#277=ADVANCED_FACE('',(#79,#55),#62,.T.);
#278=CLOSED_SHELL('',(#261,#262,#263,#264,#265,#266,#267,#268,#269));
#279=CLOSED_SHELL('',(#270,#271,#272,#273,#274,#275,#276,#277));
#280=DERIVED_UNIT_ELEMENT(#284,1.);
#281=DERIVED_UNIT_ELEMENT(#574,3.);
#282=DERIVED_UNIT_ELEMENT(#284,1.);
#283=DERIVED_UNIT_ELEMENT(#574,3.);
#284=(
MASS_UNIT()
NAMED_UNIT(*)
SI_UNIT($,.GRAM.)
);
#285=DERIVED_UNIT((#280,#281));
#286=DERIVED_UNIT((#282,#283));
#287=MEASURE_REPRESENTATION_ITEM('density measure',
POSITIVE_RATIO_MEASURE(1.425),#285);
#288=MEASURE_REPRESENTATION_ITEM('density measure',
POSITIVE_RATIO_MEASURE(8.03),#286);
#289=PROPERTY_DEFINITION_REPRESENTATION(#299,#293);
#290=PROPERTY_DEFINITION_REPRESENTATION(#300,#294);
#291=PROPERTY_DEFINITION_REPRESENTATION(#301,#295);
#292=PROPERTY_DEFINITION_REPRESENTATION(#302,#296);
#293=REPRESENTATION('material name',(#297),#570);
#294=REPRESENTATION('density',(#287),#570);
#295=REPRESENTATION('material name',(#298),#571);
#296=REPRESENTATION('density',(#288),#571);
#297=DESCRIPTIVE_REPRESENTATION_ITEM('_Plastic Rubber, Black',
'_Plastic Rubber, Black');
#298=DESCRIPTIVE_REPRESENTATION_ITEM('AISI 304','AISI 304');
#299=PROPERTY_DEFINITION('material property','material name',#590);
#300=PROPERTY_DEFINITION('material property','density of part',#590);
#301=PROPERTY_DEFINITION('material property','material name',#591);
#302=PROPERTY_DEFINITION('material property','density of part',#591);
#303=PRESENTATION_STYLE_ASSIGNMENT((#311));
#304=PRESENTATION_STYLE_ASSIGNMENT((#312));
#305=PRESENTATION_STYLE_ASSIGNMENT((NULL_STYLE(.NULL.)));
#306=PRESENTATION_STYLE_ASSIGNMENT((NULL_STYLE(.NULL.)));
#307=PRESENTATION_STYLE_ASSIGNMENT((NULL_STYLE(.NULL.)));
#308=PRESENTATION_STYLE_ASSIGNMENT((#313));
#309=PRESENTATION_STYLE_ASSIGNMENT((NULL_STYLE(.NULL.)));
#310=PRESENTATION_STYLE_ASSIGNMENT((NULL_STYLE(.NULL.)));
#311=SURFACE_STYLE_USAGE(.BOTH.,#318);
#312=SURFACE_STYLE_USAGE(.BOTH.,#319);
#313=SURFACE_STYLE_USAGE(.BOTH.,#320);
#314=SURFACE_STYLE_RENDERING_WITH_PROPERTIES($,#330,(#316));
#315=SURFACE_STYLE_RENDERING_WITH_PROPERTIES($,#332,(#317));
#316=SURFACE_STYLE_TRANSPARENT(0.);
#317=SURFACE_STYLE_TRANSPARENT(0.);
#318=SURFACE_SIDE_STYLE('',(#321,#314));
#319=SURFACE_SIDE_STYLE('',(#322));
#320=SURFACE_SIDE_STYLE('',(#323,#315));
#321=SURFACE_STYLE_FILL_AREA(#324);
#322=SURFACE_STYLE_FILL_AREA(#325);
#323=SURFACE_STYLE_FILL_AREA(#326);
#324=FILL_AREA_STYLE('',(#327));
#325=FILL_AREA_STYLE('',(#328));
#326=FILL_AREA_STYLE('',(#329));
#327=FILL_AREA_STYLE_COLOUR('',#330);
#328=FILL_AREA_STYLE_COLOUR('',#331);
#329=FILL_AREA_STYLE_COLOUR('',#332);
#330=COLOUR_RGB('',0.,0.,0.);
#331=COLOUR_RGB('',0.,0.250980392156863,0.501960784313725);
#332=COLOUR_RGB('',0.745098039215686,0.737254901960784,0.729411764705882);
#333=AXIS2_PLACEMENT_3D('placement',#488,#382,#383);
#334=AXIS2_PLACEMENT_3D('placement',#489,#384,#385);
#335=AXIS2_PLACEMENT_3D('',#490,#386,#387);
#336=AXIS2_PLACEMENT_3D('',#492,#388,#389);
#337=AXIS2_PLACEMENT_3D('',#495,#391,#392);
#338=AXIS2_PLACEMENT_3D('',#496,#393,#394);
#339=AXIS2_PLACEMENT_3D('',#498,#395,#396);
#340=AXIS2_PLACEMENT_3D('',#499,#397,#398);
#341=AXIS2_PLACEMENT_3D('',#502,#400,#401);
#342=AXIS2_PLACEMENT_3D('',#503,#402,#403);
#343=AXIS2_PLACEMENT_3D('',#504,#404,#405);
#344=AXIS2_PLACEMENT_3D('',#506,#406,#407);
#345=AXIS2_PLACEMENT_3D('',#508,#408,#409);
#346=AXIS2_PLACEMENT_3D('',#509,#410,#411);
#347=AXIS2_PLACEMENT_3D('',#510,#412,#413);
#348=AXIS2_PLACEMENT_3D('',#513,#414,#415);
#349=AXIS2_PLACEMENT_3D('',#515,#417,#418);
#350=AXIS2_PLACEMENT_3D('',#516,#419,#420);
#351=AXIS2_PLACEMENT_3D('',#517,#421,#422);
#352=AXIS2_PLACEMENT_3D('',#520,#423,#424);
#353=AXIS2_PLACEMENT_3D('',#521,#425,#426);
#354=AXIS2_PLACEMENT_3D('',#522,#427,#428);
#355=AXIS2_PLACEMENT_3D('',#523,#429,#430);
#356=AXIS2_PLACEMENT_3D('',#524,#431,#432);
#357=AXIS2_PLACEMENT_3D('',#525,#433,#434);
#358=AXIS2_PLACEMENT_3D('',#526,#435,#436);
#359=AXIS2_PLACEMENT_3D('placement',#527,#437,#438);
#360=AXIS2_PLACEMENT_3D('',#528,#439,#440);
#361=AXIS2_PLACEMENT_3D('',#531,#441,#442);
#362=AXIS2_PLACEMENT_3D('',#532,#443,#444);
#363=AXIS2_PLACEMENT_3D('',#536,#446,#447);
#364=AXIS2_PLACEMENT_3D('',#537,#448,#449);
#365=AXIS2_PLACEMENT_3D('',#538,#450,#451);
#366=AXIS2_PLACEMENT_3D('',#541,#453,#454);
#367=AXIS2_PLACEMENT_3D('',#542,#455,#456);
#368=AXIS2_PLACEMENT_3D('',#544,#457,#458);
#369=AXIS2_PLACEMENT_3D('',#547,#460,#461);
#370=AXIS2_PLACEMENT_3D('',#548,#462,#463);
#371=AXIS2_PLACEMENT_3D('',#551,#465,#466);
#372=AXIS2_PLACEMENT_3D('',#552,#467,#468);
#373=AXIS2_PLACEMENT_3D('',#553,#469,#470);
#374=AXIS2_PLACEMENT_3D('',#555,#471,#472);
#375=AXIS2_PLACEMENT_3D('',#556,#473,#474);
#376=AXIS2_PLACEMENT_3D('',#558,#475,#476);
#377=AXIS2_PLACEMENT_3D('',#560,#478,#479);
#378=AXIS2_PLACEMENT_3D('',#561,#480,#481);
#379=AXIS2_PLACEMENT_3D('',#562,#482,#483);
#380=AXIS2_PLACEMENT_3D('',#563,#484,#485);
#381=AXIS2_PLACEMENT_3D('',#564,#486,#487);
#382=DIRECTION('axis',(0.,0.,1.));
#383=DIRECTION('refdir',(1.,0.,0.));
#384=DIRECTION('axis',(0.,0.,1.));
#385=DIRECTION('refdir',(1.,0.,0.));
#386=DIRECTION('center_axis',(0.,0.,-1.));
#387=DIRECTION('ref_axis',(-1.,0.,0.));
#388=DIRECTION('center_axis',(0.,0.,-1.));
#389=DIRECTION('ref_axis',(-1.,0.,0.));
#390=DIRECTION('',(0.,0.,-1.));
#391=DIRECTION('center_axis',(0.,0.,1.));
#392=DIRECTION('ref_axis',(-1.,0.,0.));
#393=DIRECTION('center_axis',(0.,0.,1.));
#394=DIRECTION('ref_axis',(1.,0.,0.));
#395=DIRECTION('center_axis',(0.,0.,-1.));
#396=DIRECTION('ref_axis',(-1.,0.,0.));
#397=DIRECTION('center_axis',(0.,0.,1.));
#398=DIRECTION('ref_axis',(-1.,0.,0.));
#399=DIRECTION('',(0.,0.,1.));
#400=DIRECTION('center_axis',(0.,0.,1.));
#401=DIRECTION('ref_axis',(-1.,0.,0.));
#402=DIRECTION('center_axis',(0.,0.,1.));
#403=DIRECTION('ref_axis',(1.,0.,0.));
#404=DIRECTION('center_axis',(0.,0.,-1.));
#405=DIRECTION('ref_axis',(-1.,0.,0.));
#406=DIRECTION('center_axis',(0.,0.,1.));
#407=DIRECTION('ref_axis',(-1.,0.,0.));
#408=DIRECTION('center_axis',(-1.22464679914735E-16,-1.,0.));
#409=DIRECTION('ref_axis',(1.,-1.22464679914735E-16,0.));
#410=DIRECTION('center_axis',(0.,0.,-1.));
#411=DIRECTION('ref_axis',(-1.,0.,0.));
#412=DIRECTION('center_axis',(0.,0.,1.));
#413=DIRECTION('ref_axis',(-1.,0.,0.));
#414=DIRECTION('center_axis',(0.,0.,1.));
#415=DIRECTION('ref_axis',(-1.,0.,0.));
#416=DIRECTION('',(0.,0.,-1.));
#417=DIRECTION('center_axis',(0.,0.,1.));
#418=DIRECTION('ref_axis',(-1.,0.,0.));
#419=DIRECTION('center_axis',(0.,0.,1.));
#420=DIRECTION('ref_axis',(1.,0.,0.));
#421=DIRECTION('center_axis',(0.,0.,1.));
#422=DIRECTION('ref_axis',(1.,0.,0.));
#423=DIRECTION('center_axis',(0.,0.,-1.));
#424=DIRECTION('ref_axis',(-1.,0.,0.));
#425=DIRECTION('center_axis',(1.22464679914735E-16,-1.,0.));
#426=DIRECTION('ref_axis',(-1.,-1.22464679914735E-16,0.));
#427=DIRECTION('center_axis',(0.,0.,-1.));
#428=DIRECTION('ref_axis',(-1.,0.,0.));
#429=DIRECTION('center_axis',(0.,0.,1.));
#430=DIRECTION('ref_axis',(1.,0.,0.));
#431=DIRECTION('center_axis',(0.,0.,1.));
#432=DIRECTION('ref_axis',(1.,0.,0.));
#433=DIRECTION('center_axis',(0.,0.,1.));
#434=DIRECTION('ref_axis',(1.,0.,0.));
#435=DIRECTION('center_axis',(0.,0.,1.));
#436=DIRECTION('ref_axis',(1.,0.,0.));
#437=DIRECTION('axis',(0.,0.,1.));
#438=DIRECTION('refdir',(1.,0.,0.));
#439=DIRECTION('center_axis',(0.,0.,1.));
#440=DIRECTION('ref_axis',(1.,0.,0.));
#441=DIRECTION('center_axis',(0.,0.,-1.));
#442=DIRECTION('ref_axis',(1.,0.,0.));
#443=DIRECTION('center_axis',(0.,0.,-1.));
#444=DIRECTION('ref_axis',(1.,0.,0.));
#445=DIRECTION('',(0.707106781186547,8.65956056235493E-17,-0.707106781186548));
#446=DIRECTION('center_axis',(0.,0.,1.));
#447=DIRECTION('ref_axis',(1.,0.,0.));
#448=DIRECTION('center_axis',(0.,0.,1.));
#449=DIRECTION('ref_axis',(1.,0.,0.));
#450=DIRECTION('center_axis',(0.,0.,1.));
#451=DIRECTION('ref_axis',(1.,0.,0.));
#452=DIRECTION('',(0.,0.,-1.));
#453=DIRECTION('center_axis',(0.,0.,1.));
#454=DIRECTION('ref_axis',(1.,0.,0.));
#455=DIRECTION('center_axis',(0.,0.,-1.));
#456=DIRECTION('ref_axis',(-1.,0.,0.));
#457=DIRECTION('center_axis',(0.,0.,-1.));
#458=DIRECTION('ref_axis',(-1.,0.,0.));
#459=DIRECTION('',(0.707106781186548,8.65956056235494E-17,-0.707106781186548));
#460=DIRECTION('center_axis',(0.,0.,1.));
#461=DIRECTION('ref_axis',(-1.,0.,0.));
#462=DIRECTION('center_axis',(0.,0.,1.));
#463=DIRECTION('ref_axis',(-1.,0.,0.));
#464=DIRECTION('',(0.,0.,-1.));
#465=DIRECTION('center_axis',(0.,0.,-1.));
#466=DIRECTION('ref_axis',(-1.,0.,0.));
#467=DIRECTION('center_axis',(0.,0.,1.));
#468=DIRECTION('ref_axis',(1.,0.,0.));
#469=DIRECTION('center_axis',(0.,0.,1.));
#470=DIRECTION('ref_axis',(1.,0.,0.));
#471=DIRECTION('center_axis',(0.,0.,-1.));
#472=DIRECTION('ref_axis',(-1.,0.,0.));
#473=DIRECTION('center_axis',(0.,0.,1.));
#474=DIRECTION('ref_axis',(-1.,0.,0.));
#475=DIRECTION('center_axis',(0.,0.,1.));
#476=DIRECTION('ref_axis',(-1.,0.,0.));
#477=DIRECTION('',(0.,0.,-1.));
#478=DIRECTION('center_axis',(0.,0.,1.));
#479=DIRECTION('ref_axis',(1.,0.,0.));
#480=DIRECTION('center_axis',(0.,0.,1.));
#481=DIRECTION('ref_axis',(1.,0.,0.));
#482=DIRECTION('center_axis',(0.,0.,1.));
#483=DIRECTION('ref_axis',(1.,0.,0.));
#484=DIRECTION('',(0.,0.,1.));
#485=DIRECTION('',(1.,0.,0.));
#486=DIRECTION('',(0.,0.,1.));
#487=DIRECTION('',(1.,0.,0.));
#488=CARTESIAN_POINT('',(0.,0.,0.));
#489=CARTESIAN_POINT('',(0.,0.,0.));
#490=CARTESIAN_POINT('Origin',(0.,0.,4.25));
#491=CARTESIAN_POINT('',(5.,6.12323399573677E-16,4.25));
#492=CARTESIAN_POINT('Origin',(0.,0.,4.25));
#493=CARTESIAN_POINT('',(5.,6.12323399573677E-16,2.));
#494=CARTESIAN_POINT('',(5.,-6.12323399573677E-16,4.25));
#495=CARTESIAN_POINT('Origin',(0.,0.,2.));
#496=CARTESIAN_POINT('Origin',(-3.18145876623175E-15,4.77515279408669E-16,
-2.));
#497=CARTESIAN_POINT('',(31.,3.7964050773568E-15,-2.));
#498=CARTESIAN_POINT('Origin',(0.,0.,-2.));
#499=CARTESIAN_POINT('Origin',(0.,0.,0.));
#500=CARTESIAN_POINT('',(31.,3.7964050773568E-15,2.));
#501=CARTESIAN_POINT('',(31.,3.7964050773568E-15,0.));
#502=CARTESIAN_POINT('Origin',(0.,0.,2.));
#503=CARTESIAN_POINT('Origin',(-3.18145876623175E-15,4.77515279408669E-16,
2.));
#504=CARTESIAN_POINT('Origin',(0.,0.,-3.75));
#505=CARTESIAN_POINT('',(32.5,3.9801020972289E-15,-4.25));
#506=CARTESIAN_POINT('Origin',(0.,0.,-4.25));
#507=CARTESIAN_POINT('',(33.,-4.04133443718627E-15,-3.75));
#508=CARTESIAN_POINT('Origin',(32.5,-3.9801020972289E-15,-3.75));
#509=CARTESIAN_POINT('Origin',(0.,0.,-3.75));
#510=CARTESIAN_POINT('Origin',(0.,0.,0.));
#511=CARTESIAN_POINT('',(33.,4.04133443718627E-15,3.75));
#512=CARTESIAN_POINT('',(-33.,-4.04133443718627E-15,3.75));
#513=CARTESIAN_POINT('Origin',(0.,0.,3.75));
#514=CARTESIAN_POINT('',(33.,4.04133443718627E-15,0.));
#515=CARTESIAN_POINT('Origin',(0.,0.,3.75));
#516=CARTESIAN_POINT('Origin',(-1.23392778865454E-15,0.,-4.25));
#517=CARTESIAN_POINT('Origin',(0.,0.,3.75));
#518=CARTESIAN_POINT('',(32.5,-3.9801020972289E-15,4.25));
#519=CARTESIAN_POINT('',(-32.5,-3.9801020972289E-15,4.25));
#520=CARTESIAN_POINT('Origin',(0.,0.,4.25));
#521=CARTESIAN_POINT('Origin',(-32.5,-3.9801020972289E-15,3.75));
#522=CARTESIAN_POINT('Origin',(0.,0.,4.25));
#523=CARTESIAN_POINT('Origin',(-1.23392778865454E-15,0.,4.25));
#524=CARTESIAN_POINT('Origin',(0.,0.,0.));
#525=CARTESIAN_POINT('Origin',(0.,0.,0.));
#526=CARTESIAN_POINT('Origin',(0.,0.,4.25));
#527=CARTESIAN_POINT('',(0.,0.,0.));
#528=CARTESIAN_POINT('Origin',(0.,0.,4.125));
#529=CARTESIAN_POINT('',(3.25,0.,4.5));
#530=CARTESIAN_POINT('',(-3.25,-3.9801020972289E-16,4.5));
#531=CARTESIAN_POINT('Origin',(0.,0.,4.5));
#532=CARTESIAN_POINT('Origin',(0.,0.,4.5));
#533=CARTESIAN_POINT('',(-2.5,-3.06161699786838E-16,3.75));
#534=CARTESIAN_POINT('',(-2.875,-3.52085954754864E-16,4.125));
#535=CARTESIAN_POINT('',(2.5,0.,3.75));
#536=CARTESIAN_POINT('Origin',(0.,0.,3.75));
#537=CARTESIAN_POINT('Origin',(0.,0.,3.75));
#538=CARTESIAN_POINT('Origin',(0.,0.,-21.7726093108393));
#539=CARTESIAN_POINT('',(-2.5,-3.06161699786838E-16,-2.));
#540=CARTESIAN_POINT('',(-2.5,-3.06161699786838E-16,-21.7726093108393));
#541=CARTESIAN_POINT('Origin',(0.,0.,-2.));
#542=CARTESIAN_POINT('Origin',(0.,0.,4.4));
#543=CARTESIAN_POINT('',(4.8,-5.87830463590729E-16,4.5));
#544=CARTESIAN_POINT('Origin',(0.,0.,4.5));
#545=CARTESIAN_POINT('',(5.,6.12323399573677E-16,4.3));
#546=CARTESIAN_POINT('',(4.9,6.00076931582203E-16,4.4));
#547=CARTESIAN_POINT('Origin',(0.,0.,4.3));
#548=CARTESIAN_POINT('Origin',(0.,0.,2.));
#549=CARTESIAN_POINT('',(5.,6.12323399573677E-16,2.));
#550=CARTESIAN_POINT('',(5.,6.12323399573677E-16,2.));
#551=CARTESIAN_POINT('Origin',(0.,0.,2.));
#552=CARTESIAN_POINT('Origin',(-2.36064120735332E-16,0.,4.5));
#553=CARTESIAN_POINT('Origin',(-5.03042222760184E-16,0.,-2.));
#554=CARTESIAN_POINT('',(9.,1.10218211923262E-15,-2.));
#555=CARTESIAN_POINT('Origin',(0.,0.,-2.));
#556=CARTESIAN_POINT('Origin',(0.,0.,0.));
#557=CARTESIAN_POINT('',(9.,1.10218211923262E-15,2.));
#558=CARTESIAN_POINT('Origin',(0.,0.,2.));
#559=CARTESIAN_POINT('',(9.,1.10218211923262E-15,0.));
#560=CARTESIAN_POINT('Origin',(-5.03042222760184E-16,0.,2.));
#561=CARTESIAN_POINT('Origin',(0.,0.,0.));
#562=CARTESIAN_POINT('Origin',(0.,0.,2.));
#563=CARTESIAN_POINT('',(0.,0.,0.));
#564=CARTESIAN_POINT('',(0.,0.,0.));
#565=UNCERTAINTY_MEASURE_WITH_UNIT(LENGTH_MEASURE(0.01),#573,
'DISTANCE_ACCURACY_VALUE',
'Maximum model space distance between geometric entities at asserted c
onnectivities');
#566=UNCERTAINTY_MEASURE_WITH_UNIT(LENGTH_MEASURE(0.01),#573,
'DISTANCE_ACCURACY_VALUE',
'Maximum model space distance between geometric entities at asserted c
onnectivities');
#567=UNCERTAINTY_MEASURE_WITH_UNIT(LENGTH_MEASURE(0.01),#573,
'DISTANCE_ACCURACY_VALUE',
'Maximum model space distance between geometric entities at asserted c
onnectivities');
#568=UNCERTAINTY_MEASURE_WITH_UNIT(LENGTH_MEASURE(0.01),#573,
'DISTANCE_ACCURACY_VALUE',
'Maximum model space distance between geometric entities at asserted c
onnectivities');
#569=(
GEOMETRIC_REPRESENTATION_CONTEXT(3)
GLOBAL_UNCERTAINTY_ASSIGNED_CONTEXT((#565))
GLOBAL_UNIT_ASSIGNED_CONTEXT((#573,#575,#576))
REPRESENTATION_CONTEXT('','3D')
);
#570=(
GEOMETRIC_REPRESENTATION_CONTEXT(3)
GLOBAL_UNCERTAINTY_ASSIGNED_CONTEXT((#566))
GLOBAL_UNIT_ASSIGNED_CONTEXT((#573,#575,#576))
REPRESENTATION_CONTEXT('','3D')
);
#571=(
GEOMETRIC_REPRESENTATION_CONTEXT(3)
GLOBAL_UNCERTAINTY_ASSIGNED_CONTEXT((#567))
GLOBAL_UNIT_ASSIGNED_CONTEXT((#573,#575,#576))
REPRESENTATION_CONTEXT('','3D')
);
#572=(
GEOMETRIC_REPRESENTATION_CONTEXT(3)
GLOBAL_UNCERTAINTY_ASSIGNED_CONTEXT((#568))
GLOBAL_UNIT_ASSIGNED_CONTEXT((#573,#575,#576))
REPRESENTATION_CONTEXT('','3D')
);
#573=(
LENGTH_UNIT()
NAMED_UNIT(*)
SI_UNIT(.MILLI.,.METRE.)
);
#574=(
LENGTH_UNIT()
NAMED_UNIT(*)
SI_UNIT(.CENTI.,.METRE.)
);
#575=(
NAMED_UNIT(*)
PLANE_ANGLE_UNIT()
SI_UNIT($,.RADIAN.)
);
#576=(
NAMED_UNIT(*)
SI_UNIT($,.STERADIAN.)
SOLID_ANGLE_UNIT()
);
#577=SHAPE_DEFINITION_REPRESENTATION(#580,#585);
#578=SHAPE_DEFINITION_REPRESENTATION(#581,#586);
#579=SHAPE_DEFINITION_REPRESENTATION(#582,#587);
#580=PRODUCT_DEFINITION_SHAPE('',$,#589);
#581=PRODUCT_DEFINITION_SHAPE('',$,#590);
#582=PRODUCT_DEFINITION_SHAPE('',$,#591);
#583=PRODUCT_DEFINITION_SHAPE($,$,#17);
#584=PRODUCT_DEFINITION_SHAPE($,$,#18);
#585=SHAPE_REPRESENTATION('',(#333,#380,#381),#569);
#586=SHAPE_REPRESENTATION('',(#334),#570);
#587=SHAPE_REPRESENTATION('',(#359),#571);
#588=PRODUCT_DEFINITION_CONTEXT('part definition',#599,'design');
#589=PRODUCT_DEFINITION('GM17563','GM17563',#592,#588);
#590=PRODUCT_DEFINITION('E0135147','E0135147',#593,#588);
#591=PRODUCT_DEFINITION('E0135148','E0135148',#594,#588);
#592=PRODUCT_DEFINITION_FORMATION('-',$,#601);
#593=PRODUCT_DEFINITION_FORMATION('-',$,#602);
#594=PRODUCT_DEFINITION_FORMATION('-',$,#603);
#595=PRODUCT_RELATED_PRODUCT_CATEGORY('GM17563','GM17563',(#601));
#596=PRODUCT_RELATED_PRODUCT_CATEGORY('E0135147','E0135147',(#602));
#597=PRODUCT_RELATED_PRODUCT_CATEGORY('E0135148','E0135148',(#603));
#598=APPLICATION_PROTOCOL_DEFINITION('international standard',
'ap242_managed_model_based_3d_engineering',2011,#599);
#599=APPLICATION_CONTEXT('Managed model based 3d engineering');
#600=PRODUCT_CONTEXT('part definition',#599,'mechanical');
#601=PRODUCT('GM17563','GM17563',$,(#600));
#602=PRODUCT('E0135147','E0135147',$,(#600));
#603=PRODUCT('E0135148','E0135148',$,(#600));
ENDSEC;
END-ISO-10303-21;
