ISO-10303-21;
HEADER;
/* Generated by software containing ST-Developer
 * from STEP Tools, Inc. (www.steptools.com) 
 */

FILE_DESCRIPTION(
/* description */ (''),
/* implementation_level */ '2;1');

FILE_NAME(
/* name */ 
'C:\\Workspace\\Documents\\Manufacturing\\33\\E\\Pot magnets\\GM17600\\
GM17600 -.stp',
/* time_stamp */ '2019-10-02T08:12:52+02:00',
/* author */ ('PV'),
/* organization */ (''),
/* preprocessor_version */ 'ST-DEVELOPER v17.2',
/* originating_system */ 'Autodesk Inventor 2019',
/* authorisation */ '');

FILE_SCHEMA (('AUTOMOTIVE_DESIGN { 1 0 10303 214 3 1 1 }'));
ENDSEC;

DATA;
#10=MECHANICAL_DESIGN_GEOMETRIC_PRESENTATION_REPRESENTATION('',(#29,#30,
#31,#32,#33,#34),#544);
#11=ITEM_DEFINED_TRANSFORMATION($,$,#335,#372);
#12=ITEM_DEFINED_TRANSFORMATION($,$,#357,#373);
#13=ITEM_DEFINED_TRANSFORMATION($,$,#363,#374);
#14=(
REPRESENTATION_RELATIONSHIP($,$,#561,#560)
REPRESENTATION_RELATIONSHIP_WITH_TRANSFORMATION(#11)
SHAPE_REPRESENTATION_RELATIONSHIP()
);
#15=(
REPRESENTATION_RELATIONSHIP($,$,#562,#560)
REPRESENTATION_RELATIONSHIP_WITH_TRANSFORMATION(#12)
SHAPE_REPRESENTATION_RELATIONSHIP()
);
#16=(
REPRESENTATION_RELATIONSHIP($,$,#563,#560)
REPRESENTATION_RELATIONSHIP_WITH_TRANSFORMATION(#13)
SHAPE_REPRESENTATION_RELATIONSHIP()
);
#17=CONTEXT_DEPENDENT_SHAPE_REPRESENTATION(#14,#557);
#18=CONTEXT_DEPENDENT_SHAPE_REPRESENTATION(#15,#558);
#19=CONTEXT_DEPENDENT_SHAPE_REPRESENTATION(#16,#559);
#20=NEXT_ASSEMBLY_USAGE_OCCURRENCE('E0118625/- - OUTER HOUSING:1',
'E0118625/- - OUTER HOUSING:1','E0118625/- - OUTER HOUSING:1',#565,#566,
'E0118625/- - OUTER HOUSING:1');
#21=NEXT_ASSEMBLY_USAGE_OCCURRENCE('E0118626/- - MAGNET:1',
'E0118626/- - MAGNET:1','E0118626/- - MAGNET:1',#565,#567,
'E0118626/- - MAGNET:1');
#22=NEXT_ASSEMBLY_USAGE_OCCURRENCE('E0118628/- - GLUE:1',
'E0118628/- - GLUE:1','E0118628/- - GLUE:1',#565,#568,
'E0118628/- - GLUE:1');
#23=SHAPE_REPRESENTATION_RELATIONSHIP('SRR','None',#561,#26);
#24=SHAPE_REPRESENTATION_RELATIONSHIP('SRR','None',#562,#27);
#25=SHAPE_REPRESENTATION_RELATIONSHIP('SRR','None',#563,#28);
#26=ADVANCED_BREP_SHAPE_REPRESENTATION('',(#35),#541);
#27=ADVANCED_BREP_SHAPE_REPRESENTATION('',(#36),#542);
#28=ADVANCED_BREP_SHAPE_REPRESENTATION('',(#37),#543);
#29=STYLED_ITEM('',(#283),#35);
#30=STYLED_ITEM('',(#284),#239);
#31=STYLED_ITEM('',(#284),#240);
#32=STYLED_ITEM('',(#284),#241);
#33=STYLED_ITEM('',(#283),#36);
#34=STYLED_ITEM('',(#285),#37);
#35=MANIFOLD_SOLID_BREP('Solid2',#246);
#36=MANIFOLD_SOLID_BREP('Solid2',#247);
#37=MANIFOLD_SOLID_BREP('Solid2',#248);
#38=FACE_BOUND('',#74,.T.);
#39=FACE_BOUND('',#77,.T.);
#40=FACE_BOUND('',#88,.T.);
#41=FACE_BOUND('',#90,.T.);
#42=PLANE('',#343);
#43=PLANE('',#348);
#44=PLANE('',#352);
#45=PLANE('',#361);
#46=PLANE('',#362);
#47=PLANE('',#370);
#48=PLANE('',#371);
#49=CYLINDRICAL_SURFACE('',#340,3.);
#50=CYLINDRICAL_SURFACE('',#350,2.6);
#51=CYLINDRICAL_SURFACE('',#356,1.25);
#52=CYLINDRICAL_SURFACE('',#358,2.5);
#53=CYLINDRICAL_SURFACE('',#364,2.5);
#54=CYLINDRICAL_SURFACE('',#367,2.6);
#55=FACE_OUTER_BOUND('',#71,.T.);
#56=FACE_OUTER_BOUND('',#72,.T.);
#57=FACE_OUTER_BOUND('',#73,.T.);
#58=FACE_OUTER_BOUND('',#75,.T.);
#59=FACE_OUTER_BOUND('',#76,.T.);
#60=FACE_OUTER_BOUND('',#78,.T.);
#61=FACE_OUTER_BOUND('',#79,.T.);
#62=FACE_OUTER_BOUND('',#80,.T.);
#63=FACE_OUTER_BOUND('',#81,.T.);
#64=FACE_OUTER_BOUND('',#82,.T.);
#65=FACE_OUTER_BOUND('',#83,.T.);
#66=FACE_OUTER_BOUND('',#84,.T.);
#67=FACE_OUTER_BOUND('',#85,.T.);
#68=FACE_OUTER_BOUND('',#86,.T.);
#69=FACE_OUTER_BOUND('',#87,.T.);
#70=FACE_OUTER_BOUND('',#89,.T.);
#71=EDGE_LOOP('',(#173,#174,#175,#176,#177));
#72=EDGE_LOOP('',(#178,#179,#180,#181,#182,#183));
#73=EDGE_LOOP('',(#184));
#74=EDGE_LOOP('',(#185,#186));
#75=EDGE_LOOP('',(#187,#188,#189,#190,#191));
#76=EDGE_LOOP('',(#192));
#77=EDGE_LOOP('',(#193));
#78=EDGE_LOOP('',(#194,#195,#196,#197));
#79=EDGE_LOOP('',(#198));
#80=EDGE_LOOP('',(#199,#200,#201,#202));
#81=EDGE_LOOP('',(#203,#204,#205,#206,#207,#208));
#82=EDGE_LOOP('',(#209,#210,#211,#212));
#83=EDGE_LOOP('',(#213));
#84=EDGE_LOOP('',(#214));
#85=EDGE_LOOP('',(#215,#216,#217,#218));
#86=EDGE_LOOP('',(#219,#220,#221,#222));
#87=EDGE_LOOP('',(#223));
#88=EDGE_LOOP('',(#224));
#89=EDGE_LOOP('',(#225));
#90=EDGE_LOOP('',(#226));
#91=LINE('',#474,#100);
#92=LINE('',#481,#101);
#93=LINE('',#490,#102);
#94=LINE('',#496,#103);
#95=LINE('',#504,#104);
#96=LINE('',#507,#105);
#97=LINE('',#513,#106);
#98=LINE('',#522,#107);
#99=LINE('',#528,#108);
#100=VECTOR('',#385,2.9);
#101=VECTOR('',#394,3.);
#102=VECTOR('',#405,2.95);
#103=VECTOR('',#412,2.6);
#104=VECTOR('',#421,0.625);
#105=VECTOR('',#426,1.25);
#106=VECTOR('',#433,2.5);
#107=VECTOR('',#446,2.5);
#108=VECTOR('',#453,2.6);
#109=CIRCLE('',#337,3.);
#110=CIRCLE('',#338,3.);
#111=CIRCLE('',#339,2.8);
#112=CIRCLE('',#341,3.);
#113=CIRCLE('',#342,3.);
#114=CIRCLE('',#344,1.25);
#115=CIRCLE('',#345,1.25);
#116=CIRCLE('',#347,2.9);
#117=CIRCLE('',#349,2.6);
#118=CIRCLE('',#351,2.6);
#119=CIRCLE('',#354,1.25);
#120=CIRCLE('',#355,1.25);
#121=CIRCLE('',#359,2.5);
#122=CIRCLE('',#360,2.5);
#123=CIRCLE('',#365,2.5);
#124=CIRCLE('',#366,2.5);
#125=CIRCLE('',#368,2.6);
#126=CIRCLE('',#369,2.6);
#127=VERTEX_POINT('',#469);
#128=VERTEX_POINT('',#470);
#129=VERTEX_POINT('',#473);
#130=VERTEX_POINT('',#477);
#131=VERTEX_POINT('',#478);
#132=VERTEX_POINT('',#483);
#133=VERTEX_POINT('',#484);
#134=VERTEX_POINT('',#488);
#135=VERTEX_POINT('',#492);
#136=VERTEX_POINT('',#495);
#137=VERTEX_POINT('',#500);
#138=VERTEX_POINT('',#501);
#139=VERTEX_POINT('',#503);
#140=VERTEX_POINT('',#510);
#141=VERTEX_POINT('',#512);
#142=VERTEX_POINT('',#519);
#143=VERTEX_POINT('',#521);
#144=VERTEX_POINT('',#525);
#145=VERTEX_POINT('',#527);
#146=EDGE_CURVE('',#127,#128,#109,.T.);
#147=EDGE_CURVE('',#128,#127,#110,.T.);
#148=EDGE_CURVE('',#127,#129,#91,.T.);
#149=EDGE_CURVE('',#129,#129,#111,.T.);
#150=EDGE_CURVE('',#130,#131,#112,.T.);
#151=EDGE_CURVE('',#131,#130,#113,.T.);
#152=EDGE_CURVE('',#131,#128,#92,.T.);
#153=EDGE_CURVE('',#132,#133,#114,.T.);
#154=EDGE_CURVE('',#133,#132,#115,.T.);
#155=EDGE_CURVE('',#134,#134,#116,.T.);
#156=EDGE_CURVE('',#134,#130,#93,.T.);
#157=EDGE_CURVE('',#135,#135,#117,.T.);
#158=EDGE_CURVE('',#135,#136,#94,.T.);
#159=EDGE_CURVE('',#136,#136,#118,.T.);
#160=EDGE_CURVE('',#137,#138,#119,.T.);
#161=EDGE_CURVE('',#138,#139,#95,.T.);
#162=EDGE_CURVE('',#138,#137,#120,.T.);
#163=EDGE_CURVE('',#133,#138,#96,.T.);
#164=EDGE_CURVE('',#140,#140,#121,.T.);
#165=EDGE_CURVE('',#140,#141,#97,.T.);
#166=EDGE_CURVE('',#141,#141,#122,.T.);
#167=EDGE_CURVE('',#142,#142,#123,.T.);
#168=EDGE_CURVE('',#142,#143,#98,.T.);
#169=EDGE_CURVE('',#143,#143,#124,.T.);
#170=EDGE_CURVE('',#144,#144,#125,.T.);
#171=EDGE_CURVE('',#144,#145,#99,.T.);
#172=EDGE_CURVE('',#145,#145,#126,.T.);
#173=ORIENTED_EDGE('',*,*,#146,.T.);
#174=ORIENTED_EDGE('',*,*,#147,.T.);
#175=ORIENTED_EDGE('',*,*,#148,.T.);
#176=ORIENTED_EDGE('',*,*,#149,.T.);
#177=ORIENTED_EDGE('',*,*,#148,.F.);
#178=ORIENTED_EDGE('',*,*,#150,.F.);
#179=ORIENTED_EDGE('',*,*,#151,.F.);
#180=ORIENTED_EDGE('',*,*,#152,.T.);
#181=ORIENTED_EDGE('',*,*,#146,.F.);
#182=ORIENTED_EDGE('',*,*,#147,.F.);
#183=ORIENTED_EDGE('',*,*,#152,.F.);
#184=ORIENTED_EDGE('',*,*,#149,.F.);
#185=ORIENTED_EDGE('',*,*,#153,.T.);
#186=ORIENTED_EDGE('',*,*,#154,.T.);
#187=ORIENTED_EDGE('',*,*,#155,.T.);
#188=ORIENTED_EDGE('',*,*,#156,.T.);
#189=ORIENTED_EDGE('',*,*,#150,.T.);
#190=ORIENTED_EDGE('',*,*,#151,.T.);
#191=ORIENTED_EDGE('',*,*,#156,.F.);
#192=ORIENTED_EDGE('',*,*,#155,.F.);
#193=ORIENTED_EDGE('',*,*,#157,.T.);
#194=ORIENTED_EDGE('',*,*,#157,.F.);
#195=ORIENTED_EDGE('',*,*,#158,.T.);
#196=ORIENTED_EDGE('',*,*,#159,.T.);
#197=ORIENTED_EDGE('',*,*,#158,.F.);
#198=ORIENTED_EDGE('',*,*,#159,.F.);
#199=ORIENTED_EDGE('',*,*,#160,.T.);
#200=ORIENTED_EDGE('',*,*,#161,.T.);
#201=ORIENTED_EDGE('',*,*,#161,.F.);
#202=ORIENTED_EDGE('',*,*,#162,.T.);
#203=ORIENTED_EDGE('',*,*,#153,.F.);
#204=ORIENTED_EDGE('',*,*,#154,.F.);
#205=ORIENTED_EDGE('',*,*,#163,.T.);
#206=ORIENTED_EDGE('',*,*,#160,.F.);
#207=ORIENTED_EDGE('',*,*,#162,.F.);
#208=ORIENTED_EDGE('',*,*,#163,.F.);
#209=ORIENTED_EDGE('',*,*,#164,.F.);
#210=ORIENTED_EDGE('',*,*,#165,.T.);
#211=ORIENTED_EDGE('',*,*,#166,.F.);
#212=ORIENTED_EDGE('',*,*,#165,.F.);
#213=ORIENTED_EDGE('',*,*,#166,.T.);
#214=ORIENTED_EDGE('',*,*,#164,.T.);
#215=ORIENTED_EDGE('',*,*,#167,.F.);
#216=ORIENTED_EDGE('',*,*,#168,.T.);
#217=ORIENTED_EDGE('',*,*,#169,.F.);
#218=ORIENTED_EDGE('',*,*,#168,.F.);
#219=ORIENTED_EDGE('',*,*,#170,.F.);
#220=ORIENTED_EDGE('',*,*,#171,.T.);
#221=ORIENTED_EDGE('',*,*,#172,.F.);
#222=ORIENTED_EDGE('',*,*,#171,.F.);
#223=ORIENTED_EDGE('',*,*,#172,.T.);
#224=ORIENTED_EDGE('',*,*,#167,.T.);
#225=ORIENTED_EDGE('',*,*,#170,.T.);
#226=ORIENTED_EDGE('',*,*,#169,.T.);
#227=CONICAL_SURFACE('',#336,2.9,0.78539816339745);
#228=CONICAL_SURFACE('',#346,2.95,0.785398163397443);
#229=CONICAL_SURFACE('',#353,0.625,1.02974425867665);
#230=ADVANCED_FACE('',(#55),#227,.T.);
#231=ADVANCED_FACE('',(#56),#49,.T.);
#232=ADVANCED_FACE('',(#57,#38),#42,.T.);
#233=ADVANCED_FACE('',(#58),#228,.T.);
#234=ADVANCED_FACE('',(#59,#39),#43,.T.);
#235=ADVANCED_FACE('',(#60),#50,.F.);
#236=ADVANCED_FACE('',(#61),#44,.F.);
#237=ADVANCED_FACE('',(#62),#229,.F.);
#238=ADVANCED_FACE('',(#63),#51,.F.);
#239=ADVANCED_FACE('',(#64),#52,.T.);
#240=ADVANCED_FACE('',(#65),#45,.F.);
#241=ADVANCED_FACE('',(#66),#46,.T.);
#242=ADVANCED_FACE('',(#67),#53,.F.);
#243=ADVANCED_FACE('',(#68),#54,.T.);
#244=ADVANCED_FACE('',(#69,#40),#47,.F.);
#245=ADVANCED_FACE('',(#70,#41),#48,.T.);
#246=CLOSED_SHELL('',(#230,#231,#232,#233,#234,#235,#236,#237,#238));
#247=CLOSED_SHELL('',(#239,#240,#241));
#248=CLOSED_SHELL('',(#242,#243,#244,#245));
#249=DERIVED_UNIT_ELEMENT(#255,1.);
#250=DERIVED_UNIT_ELEMENT(#546,3.);
#251=DERIVED_UNIT_ELEMENT(#255,1.);
#252=DERIVED_UNIT_ELEMENT(#546,3.);
#253=DERIVED_UNIT_ELEMENT(#255,1.);
#254=DERIVED_UNIT_ELEMENT(#546,3.);
#255=(
MASS_UNIT()
NAMED_UNIT(*)
SI_UNIT($,.GRAM.)
);
#256=DERIVED_UNIT((#249,#250));
#257=DERIVED_UNIT((#251,#252));
#258=DERIVED_UNIT((#253,#254));
#259=MEASURE_REPRESENTATION_ITEM('density measure',
POSITIVE_RATIO_MEASURE(7.85),#256);
#260=MEASURE_REPRESENTATION_ITEM('density measure',
POSITIVE_RATIO_MEASURE(7.85),#257);
#261=MEASURE_REPRESENTATION_ITEM('density measure',
POSITIVE_RATIO_MEASURE(1.),#258);
#262=PROPERTY_DEFINITION_REPRESENTATION(#277,#268);
#263=PROPERTY_DEFINITION_REPRESENTATION(#278,#269);
#264=PROPERTY_DEFINITION_REPRESENTATION(#279,#270);
#265=PROPERTY_DEFINITION_REPRESENTATION(#280,#271);
#266=PROPERTY_DEFINITION_REPRESENTATION(#281,#272);
#267=PROPERTY_DEFINITION_REPRESENTATION(#282,#273);
#268=REPRESENTATION('material name',(#274),#541);
#269=REPRESENTATION('density',(#259),#541);
#270=REPRESENTATION('material name',(#275),#542);
#271=REPRESENTATION('density',(#260),#542);
#272=REPRESENTATION('material name',(#276),#543);
#273=REPRESENTATION('density',(#261),#543);
#274=DESCRIPTIVE_REPRESENTATION_ITEM('Steel, Carbon','Steel, Carbon');
#275=DESCRIPTIVE_REPRESENTATION_ITEM('Steel, Carbon','Steel, Carbon');
#276=DESCRIPTIVE_REPRESENTATION_ITEM('PE','PE');
#277=PROPERTY_DEFINITION('material property','material name',#566);
#278=PROPERTY_DEFINITION('material property','density of part',#566);
#279=PROPERTY_DEFINITION('material property','material name',#567);
#280=PROPERTY_DEFINITION('material property','density of part',#567);
#281=PROPERTY_DEFINITION('material property','material name',#568);
#282=PROPERTY_DEFINITION('material property','density of part',#568);
#283=PRESENTATION_STYLE_ASSIGNMENT((#286));
#284=PRESENTATION_STYLE_ASSIGNMENT((#287));
#285=PRESENTATION_STYLE_ASSIGNMENT((#288));
#286=SURFACE_STYLE_USAGE(.BOTH.,#295);
#287=SURFACE_STYLE_USAGE(.BOTH.,#296);
#288=SURFACE_STYLE_USAGE(.BOTH.,#297);
#289=SURFACE_STYLE_RENDERING_WITH_PROPERTIES($,#307,(#292));
#290=SURFACE_STYLE_RENDERING_WITH_PROPERTIES($,#308,(#293));
#291=SURFACE_STYLE_RENDERING_WITH_PROPERTIES($,#309,(#294));
#292=SURFACE_STYLE_TRANSPARENT(0.);
#293=SURFACE_STYLE_TRANSPARENT(0.);
#294=SURFACE_STYLE_TRANSPARENT(0.);
#295=SURFACE_SIDE_STYLE('',(#298,#289));
#296=SURFACE_SIDE_STYLE('',(#299,#290));
#297=SURFACE_SIDE_STYLE('',(#300,#291));
#298=SURFACE_STYLE_FILL_AREA(#301);
#299=SURFACE_STYLE_FILL_AREA(#302);
#300=SURFACE_STYLE_FILL_AREA(#303);
#301=FILL_AREA_STYLE('',(#304));
#302=FILL_AREA_STYLE('',(#305));
#303=FILL_AREA_STYLE('',(#306));
#304=FILL_AREA_STYLE_COLOUR('',#307);
#305=FILL_AREA_STYLE_COLOUR('',#308);
#306=FILL_AREA_STYLE_COLOUR('',#309);
#307=COLOUR_RGB('',0.745098039215686,0.737254901960784,0.729411764705882);
#308=COLOUR_RGB('',0.501960784313725,1.,0.501960784313725);
#309=COLOUR_RGB('',0.,0.,0.);
#310=DATE_TIME_ROLE('creation_date');
#311=DATE_TIME_ROLE('creation_date');
#312=DATE_TIME_ROLE('creation_date');
#313=DATE_TIME_ROLE('creation_date');
#314=APPLIED_DATE_AND_TIME_ASSIGNMENT(#318,#310,(#565));
#315=APPLIED_DATE_AND_TIME_ASSIGNMENT(#319,#311,(#566));
#316=APPLIED_DATE_AND_TIME_ASSIGNMENT(#320,#312,(#567));
#317=APPLIED_DATE_AND_TIME_ASSIGNMENT(#321,#313,(#568));
#318=DATE_AND_TIME(#322,#326);
#319=DATE_AND_TIME(#323,#327);
#320=DATE_AND_TIME(#324,#328);
#321=DATE_AND_TIME(#325,#329);
#322=CALENDAR_DATE(2019,16,7);
#323=CALENDAR_DATE(2019,9,7);
#324=CALENDAR_DATE(2019,9,7);
#325=CALENDAR_DATE(2019,9,7);
#326=LOCAL_TIME(22,0,0.,#330);
#327=LOCAL_TIME(22,0,0.,#331);
#328=LOCAL_TIME(22,0,0.,#332);
#329=LOCAL_TIME(22,0,0.,#333);
#330=COORDINATED_UNIVERSAL_TIME_OFFSET(0,0,.BEHIND.);
#331=COORDINATED_UNIVERSAL_TIME_OFFSET(0,0,.BEHIND.);
#332=COORDINATED_UNIVERSAL_TIME_OFFSET(0,0,.BEHIND.);
#333=COORDINATED_UNIVERSAL_TIME_OFFSET(0,0,.BEHIND.);
#334=AXIS2_PLACEMENT_3D('placement',#466,#375,#376);
#335=AXIS2_PLACEMENT_3D('placement',#467,#377,#378);
#336=AXIS2_PLACEMENT_3D('',#468,#379,#380);
#337=AXIS2_PLACEMENT_3D('',#471,#381,#382);
#338=AXIS2_PLACEMENT_3D('',#472,#383,#384);
#339=AXIS2_PLACEMENT_3D('',#475,#386,#387);
#340=AXIS2_PLACEMENT_3D('',#476,#388,#389);
#341=AXIS2_PLACEMENT_3D('',#479,#390,#391);
#342=AXIS2_PLACEMENT_3D('',#480,#392,#393);
#343=AXIS2_PLACEMENT_3D('',#482,#395,#396);
#344=AXIS2_PLACEMENT_3D('',#485,#397,#398);
#345=AXIS2_PLACEMENT_3D('',#486,#399,#400);
#346=AXIS2_PLACEMENT_3D('',#487,#401,#402);
#347=AXIS2_PLACEMENT_3D('',#489,#403,#404);
#348=AXIS2_PLACEMENT_3D('',#491,#406,#407);
#349=AXIS2_PLACEMENT_3D('',#493,#408,#409);
#350=AXIS2_PLACEMENT_3D('',#494,#410,#411);
#351=AXIS2_PLACEMENT_3D('',#497,#413,#414);
#352=AXIS2_PLACEMENT_3D('',#498,#415,#416);
#353=AXIS2_PLACEMENT_3D('',#499,#417,#418);
#354=AXIS2_PLACEMENT_3D('',#502,#419,#420);
#355=AXIS2_PLACEMENT_3D('',#505,#422,#423);
#356=AXIS2_PLACEMENT_3D('',#506,#424,#425);
#357=AXIS2_PLACEMENT_3D('placement',#508,#427,#428);
#358=AXIS2_PLACEMENT_3D('',#509,#429,#430);
#359=AXIS2_PLACEMENT_3D('',#511,#431,#432);
#360=AXIS2_PLACEMENT_3D('',#514,#434,#435);
#361=AXIS2_PLACEMENT_3D('',#515,#436,#437);
#362=AXIS2_PLACEMENT_3D('',#516,#438,#439);
#363=AXIS2_PLACEMENT_3D('placement',#517,#440,#441);
#364=AXIS2_PLACEMENT_3D('',#518,#442,#443);
#365=AXIS2_PLACEMENT_3D('',#520,#444,#445);
#366=AXIS2_PLACEMENT_3D('',#523,#447,#448);
#367=AXIS2_PLACEMENT_3D('',#524,#449,#450);
#368=AXIS2_PLACEMENT_3D('',#526,#451,#452);
#369=AXIS2_PLACEMENT_3D('',#529,#454,#455);
#370=AXIS2_PLACEMENT_3D('',#530,#456,#457);
#371=AXIS2_PLACEMENT_3D('',#531,#458,#459);
#372=AXIS2_PLACEMENT_3D('',#532,#460,#461);
#373=AXIS2_PLACEMENT_3D('',#533,#462,#463);
#374=AXIS2_PLACEMENT_3D('',#534,#464,#465);
#375=DIRECTION('axis',(0.,0.,1.));
#376=DIRECTION('refdir',(1.,0.,0.));
#377=DIRECTION('axis',(0.,0.,1.));
#378=DIRECTION('refdir',(1.,0.,0.));
#379=DIRECTION('center_axis',(0.,-1.,0.));
#380=DIRECTION('ref_axis',(-1.,0.,0.));
#381=DIRECTION('center_axis',(0.,1.,0.));
#382=DIRECTION('ref_axis',(-1.,0.,0.));
#383=DIRECTION('center_axis',(0.,1.,0.));
#384=DIRECTION('ref_axis',(-1.,0.,0.));
#385=DIRECTION('',(-0.707106781186549,0.707106781186547,-8.65956056235495E-17));
#386=DIRECTION('center_axis',(0.,-1.,0.));
#387=DIRECTION('ref_axis',(-1.,0.,0.));
#388=DIRECTION('center_axis',(0.,-1.,0.));
#389=DIRECTION('ref_axis',(1.,0.,0.));
#390=DIRECTION('center_axis',(0.,-1.,0.));
#391=DIRECTION('ref_axis',(-1.,0.,0.));
#392=DIRECTION('center_axis',(0.,-1.,0.));
#393=DIRECTION('ref_axis',(-1.,0.,0.));
#394=DIRECTION('',(0.,1.,0.));
#395=DIRECTION('center_axis',(0.,1.,0.));
#396=DIRECTION('ref_axis',(0.,0.,1.));
#397=DIRECTION('center_axis',(0.,-1.,0.));
#398=DIRECTION('ref_axis',(1.,0.,0.));
#399=DIRECTION('center_axis',(0.,-1.,0.));
#400=DIRECTION('ref_axis',(1.,0.,0.));
#401=DIRECTION('center_axis',(0.,1.,0.));
#402=DIRECTION('ref_axis',(-1.,0.,0.));
#403=DIRECTION('center_axis',(0.,1.,0.));
#404=DIRECTION('ref_axis',(-1.,0.,0.));
#405=DIRECTION('',(0.707106781186544,0.707106781186552,8.65956056235489E-17));
#406=DIRECTION('center_axis',(0.,-1.,0.));
#407=DIRECTION('ref_axis',(0.,0.,-1.));
#408=DIRECTION('center_axis',(0.,1.,0.));
#409=DIRECTION('ref_axis',(-1.,0.,0.));
#410=DIRECTION('center_axis',(0.,1.,0.));
#411=DIRECTION('ref_axis',(-1.,0.,0.));
#412=DIRECTION('',(0.,1.,0.));
#413=DIRECTION('center_axis',(0.,1.,0.));
#414=DIRECTION('ref_axis',(-1.,0.,0.));
#415=DIRECTION('center_axis',(0.,1.,0.));
#416=DIRECTION('ref_axis',(0.,0.,1.));
#417=DIRECTION('center_axis',(0.,1.,0.));
#418=DIRECTION('ref_axis',(1.,0.,0.));
#419=DIRECTION('center_axis',(0.,1.,0.));
#420=DIRECTION('ref_axis',(1.,0.,0.));
#421=DIRECTION('',(0.857167300702112,-0.515038074910054,-1.04972719113862E-16));
#422=DIRECTION('center_axis',(0.,1.,0.));
#423=DIRECTION('ref_axis',(1.,0.,0.));
#424=DIRECTION('center_axis',(0.,1.,0.));
#425=DIRECTION('ref_axis',(1.,0.,0.));
#426=DIRECTION('',(0.,-1.,0.));
#427=DIRECTION('axis',(0.,0.,1.));
#428=DIRECTION('refdir',(1.,0.,0.));
#429=DIRECTION('center_axis',(0.,0.,1.));
#430=DIRECTION('ref_axis',(-1.,0.,0.));
#431=DIRECTION('center_axis',(0.,0.,1.));
#432=DIRECTION('ref_axis',(-1.,0.,0.));
#433=DIRECTION('',(0.,0.,-1.));
#434=DIRECTION('center_axis',(0.,0.,-1.));
#435=DIRECTION('ref_axis',(-1.,0.,0.));
#436=DIRECTION('center_axis',(0.,0.,1.));
#437=DIRECTION('ref_axis',(1.,0.,0.));
#438=DIRECTION('center_axis',(0.,0.,1.));
#439=DIRECTION('ref_axis',(1.,0.,0.));
#440=DIRECTION('axis',(0.,0.,1.));
#441=DIRECTION('refdir',(1.,0.,0.));
#442=DIRECTION('center_axis',(0.,1.,0.));
#443=DIRECTION('ref_axis',(1.,0.,0.));
#444=DIRECTION('center_axis',(0.,1.,0.));
#445=DIRECTION('ref_axis',(1.,0.,0.));
#446=DIRECTION('',(0.,1.,0.));
#447=DIRECTION('center_axis',(0.,-1.,0.));
#448=DIRECTION('ref_axis',(1.,0.,0.));
#449=DIRECTION('center_axis',(0.,1.,0.));
#450=DIRECTION('ref_axis',(1.,0.,0.));
#451=DIRECTION('center_axis',(0.,1.,0.));
#452=DIRECTION('ref_axis',(1.,0.,0.));
#453=DIRECTION('',(0.,-1.,0.));
#454=DIRECTION('center_axis',(0.,-1.,0.));
#455=DIRECTION('ref_axis',(1.,0.,0.));
#456=DIRECTION('center_axis',(0.,1.,0.));
#457=DIRECTION('ref_axis',(0.,0.,1.));
#458=DIRECTION('center_axis',(0.,1.,0.));
#459=DIRECTION('ref_axis',(0.,0.,1.));
#460=DIRECTION('',(0.,0.,1.));
#461=DIRECTION('',(1.,0.,0.));
#462=DIRECTION('',(0.,-1.,0.));
#463=DIRECTION('',(0.660749756857358,0.,0.750606260840491));
#464=DIRECTION('',(-0.180144574480588,0.,0.983640143693418));
#465=DIRECTION('',(0.983640143693418,0.,0.180144574480588));
#466=CARTESIAN_POINT('',(0.,0.,0.));
#467=CARTESIAN_POINT('',(0.,0.,0.));
#468=CARTESIAN_POINT('Origin',(0.,11.4,0.));
#469=CARTESIAN_POINT('',(3.,11.3,-3.67394039744206E-16));
#470=CARTESIAN_POINT('',(-3.,11.3,-3.67394039744206E-16));
#471=CARTESIAN_POINT('Origin',(0.,11.3,0.));
#472=CARTESIAN_POINT('Origin',(0.,11.3,0.));
#473=CARTESIAN_POINT('',(2.8,11.5,3.42901103761259E-16));
#474=CARTESIAN_POINT('',(2.9,11.4,3.55147571752732E-16));
#475=CARTESIAN_POINT('Origin',(0.,11.5,0.));
#476=CARTESIAN_POINT('Origin',(0.,5.75,0.));
#477=CARTESIAN_POINT('',(3.,0.1,3.67394039744206E-16));
#478=CARTESIAN_POINT('',(-3.,0.1,-3.67394039744206E-16));
#479=CARTESIAN_POINT('Origin',(0.,0.1,0.));
#480=CARTESIAN_POINT('Origin',(0.,0.1,0.));
#481=CARTESIAN_POINT('',(-3.,5.75,-3.67394039744206E-16));
#482=CARTESIAN_POINT('Origin',(3.,11.5,0.));
#483=CARTESIAN_POINT('',(1.25,11.5,0.));
#484=CARTESIAN_POINT('',(-1.25,11.5,1.53080849893419E-16));
#485=CARTESIAN_POINT('Origin',(0.,11.5,0.));
#486=CARTESIAN_POINT('Origin',(0.,11.5,0.));
#487=CARTESIAN_POINT('Origin',(0.,0.05,0.));
#488=CARTESIAN_POINT('',(2.9,0.,-3.55147571752733E-16));
#489=CARTESIAN_POINT('Origin',(0.,0.,0.));
#490=CARTESIAN_POINT('',(2.95,0.05,3.61270805748469E-16));
#491=CARTESIAN_POINT('Origin',(0.,0.,0.));
#492=CARTESIAN_POINT('',(2.6,0.,3.18408167778312E-16));
#493=CARTESIAN_POINT('Origin',(0.,0.,0.));
#494=CARTESIAN_POINT('Origin',(0.,0.,0.));
#495=CARTESIAN_POINT('',(2.6,2.8,3.18408167778312E-16));
#496=CARTESIAN_POINT('',(2.6,0.,-3.18408167778312E-16));
#497=CARTESIAN_POINT('Origin',(0.,2.8,0.));
#498=CARTESIAN_POINT('Origin',(-1.15494192236747E-16,2.8,0.));
#499=CARTESIAN_POINT('Origin',(0.,3.62446211310778,0.));
#500=CARTESIAN_POINT('',(1.25,4.,0.));
#501=CARTESIAN_POINT('',(-1.25,4.,1.53080849893419E-16));
#502=CARTESIAN_POINT('Origin',(0.,4.,0.));
#503=CARTESIAN_POINT('',(0.,3.24892422621555,0.));
#504=CARTESIAN_POINT('',(-0.625,3.62446211310778,7.65404249467096E-17));
#505=CARTESIAN_POINT('Origin',(0.,4.,0.));
#506=CARTESIAN_POINT('Origin',(0.,7.75,0.));
#507=CARTESIAN_POINT('',(-1.25,7.75,1.53080849893419E-16));
#508=CARTESIAN_POINT('',(0.,0.,0.));
#509=CARTESIAN_POINT('Origin',(0.,0.,0.));
#510=CARTESIAN_POINT('',(2.5,3.06161699786838E-16,2.8));
#511=CARTESIAN_POINT('Origin',(0.,0.,2.8));
#512=CARTESIAN_POINT('',(2.5,3.06161699786838E-16,0.));
#513=CARTESIAN_POINT('',(2.5,3.06161699786838E-16,0.));
#514=CARTESIAN_POINT('Origin',(0.,0.,0.));
#515=CARTESIAN_POINT('Origin',(-1.18032060367666E-16,0.,0.));
#516=CARTESIAN_POINT('Origin',(-1.18032060367666E-16,0.,2.8));
#517=CARTESIAN_POINT('',(0.,0.,0.));
#518=CARTESIAN_POINT('Origin',(0.,0.,0.));
#519=CARTESIAN_POINT('',(-2.5,0.,3.06161699786838E-16));
#520=CARTESIAN_POINT('Origin',(0.,0.,0.));
#521=CARTESIAN_POINT('',(-2.5,2.8,3.06161699786838E-16));
#522=CARTESIAN_POINT('',(-2.5,0.,3.06161699786838E-16));
#523=CARTESIAN_POINT('Origin',(0.,2.8,0.));
#524=CARTESIAN_POINT('Origin',(0.,0.,0.));
#525=CARTESIAN_POINT('',(-2.6,2.8,3.18408167778312E-16));
#526=CARTESIAN_POINT('Origin',(0.,2.8,0.));
#527=CARTESIAN_POINT('',(-2.6,0.,3.18408167778312E-16));
#528=CARTESIAN_POINT('',(-2.6,0.,3.18408167778312E-16));
#529=CARTESIAN_POINT('Origin',(0.,0.,0.));
#530=CARTESIAN_POINT('Origin',(1.15494192236747E-16,0.,0.));
#531=CARTESIAN_POINT('Origin',(1.15494192236747E-16,2.8,0.));
#532=CARTESIAN_POINT('',(0.,0.,0.));
#533=CARTESIAN_POINT('',(0.,2.8,0.));
#534=CARTESIAN_POINT('',(0.,0.,0.));
#535=UNCERTAINTY_MEASURE_WITH_UNIT(LENGTH_MEASURE(0.01),#545,
'DISTANCE_ACCURACY_VALUE',
'Maximum model space distance between geometric entities at asserted c
onnectivities');
#536=UNCERTAINTY_MEASURE_WITH_UNIT(LENGTH_MEASURE(0.01),#545,
'DISTANCE_ACCURACY_VALUE',
'Maximum model space distance between geometric entities at asserted c
onnectivities');
#537=UNCERTAINTY_MEASURE_WITH_UNIT(LENGTH_MEASURE(0.01),#545,
'DISTANCE_ACCURACY_VALUE',
'Maximum model space distance between geometric entities at asserted c
onnectivities');
#538=UNCERTAINTY_MEASURE_WITH_UNIT(LENGTH_MEASURE(0.01),#545,
'DISTANCE_ACCURACY_VALUE',
'Maximum model space distance between geometric entities at asserted c
onnectivities');
#539=UNCERTAINTY_MEASURE_WITH_UNIT(LENGTH_MEASURE(0.01),#545,
'DISTANCE_ACCURACY_VALUE',
'Maximum model space distance between geometric entities at asserted c
onnectivities');
#540=(
GEOMETRIC_REPRESENTATION_CONTEXT(3)
GLOBAL_UNCERTAINTY_ASSIGNED_CONTEXT((#535))
GLOBAL_UNIT_ASSIGNED_CONTEXT((#545,#547,#548))
REPRESENTATION_CONTEXT('','3D')
);
#541=(
GEOMETRIC_REPRESENTATION_CONTEXT(3)
GLOBAL_UNCERTAINTY_ASSIGNED_CONTEXT((#536))
GLOBAL_UNIT_ASSIGNED_CONTEXT((#545,#547,#548))
REPRESENTATION_CONTEXT('','3D')
);
#542=(
GEOMETRIC_REPRESENTATION_CONTEXT(3)
GLOBAL_UNCERTAINTY_ASSIGNED_CONTEXT((#537))
GLOBAL_UNIT_ASSIGNED_CONTEXT((#545,#547,#548))
REPRESENTATION_CONTEXT('','3D')
);
#543=(
GEOMETRIC_REPRESENTATION_CONTEXT(3)
GLOBAL_UNCERTAINTY_ASSIGNED_CONTEXT((#538))
GLOBAL_UNIT_ASSIGNED_CONTEXT((#545,#547,#548))
REPRESENTATION_CONTEXT('','3D')
);
#544=(
GEOMETRIC_REPRESENTATION_CONTEXT(3)
GLOBAL_UNCERTAINTY_ASSIGNED_CONTEXT((#539))
GLOBAL_UNIT_ASSIGNED_CONTEXT((#545,#547,#548))
REPRESENTATION_CONTEXT('','3D')
);
#545=(
LENGTH_UNIT()
NAMED_UNIT(*)
SI_UNIT(.MILLI.,.METRE.)
);
#546=(
LENGTH_UNIT()
NAMED_UNIT(*)
SI_UNIT(.CENTI.,.METRE.)
);
#547=(
NAMED_UNIT(*)
PLANE_ANGLE_UNIT()
SI_UNIT($,.RADIAN.)
);
#548=(
NAMED_UNIT(*)
SI_UNIT($,.STERADIAN.)
SOLID_ANGLE_UNIT()
);
#549=SHAPE_DEFINITION_REPRESENTATION(#553,#560);
#550=SHAPE_DEFINITION_REPRESENTATION(#554,#561);
#551=SHAPE_DEFINITION_REPRESENTATION(#555,#562);
#552=SHAPE_DEFINITION_REPRESENTATION(#556,#563);
#553=PRODUCT_DEFINITION_SHAPE('',$,#565);
#554=PRODUCT_DEFINITION_SHAPE('',$,#566);
#555=PRODUCT_DEFINITION_SHAPE('',$,#567);
#556=PRODUCT_DEFINITION_SHAPE('',$,#568);
#557=PRODUCT_DEFINITION_SHAPE($,$,#20);
#558=PRODUCT_DEFINITION_SHAPE($,$,#21);
#559=PRODUCT_DEFINITION_SHAPE($,$,#22);
#560=SHAPE_REPRESENTATION('',(#334,#372,#373,#374),#540);
#561=SHAPE_REPRESENTATION('',(#335),#541);
#562=SHAPE_REPRESENTATION('',(#357),#542);
#563=SHAPE_REPRESENTATION('',(#363),#543);
#564=PRODUCT_DEFINITION_CONTEXT('part definition',#578,'design');
#565=PRODUCT_DEFINITION('GM17600','GM17600',#569,#564);
#566=PRODUCT_DEFINITION('E0118625','E0118625',#570,#564);
#567=PRODUCT_DEFINITION('E0118626','E0118626',#571,#564);
#568=PRODUCT_DEFINITION('E0118628','E0118628',#572,#564);
#569=PRODUCT_DEFINITION_FORMATION('-',$,#580);
#570=PRODUCT_DEFINITION_FORMATION('-',$,#581);
#571=PRODUCT_DEFINITION_FORMATION('-',$,#582);
#572=PRODUCT_DEFINITION_FORMATION('-',$,#583);
#573=PRODUCT_RELATED_PRODUCT_CATEGORY('GM17600','GM17600',(#580));
#574=PRODUCT_RELATED_PRODUCT_CATEGORY('E0118625','E0118625',(#581));
#575=PRODUCT_RELATED_PRODUCT_CATEGORY('E0118626','E0118626',(#582));
#576=PRODUCT_RELATED_PRODUCT_CATEGORY('E0118628','E0118628',(#583));
#577=APPLICATION_PROTOCOL_DEFINITION('international standard',
'automotive_design',2009,#578);
#578=APPLICATION_CONTEXT(
'Core Data for Automotive Mechanical Design Process');
#579=PRODUCT_CONTEXT('part definition',#578,'mechanical');
#580=PRODUCT('GM17600','GM17600',$,(#579));
#581=PRODUCT('E0118625','E0118625',$,(#579));
#582=PRODUCT('E0118626','E0118626',$,(#579));
#583=PRODUCT('E0118628','E0118628',$,(#579));
ENDSEC;
END-ISO-10303-21;
