ISO-10303-21;
HEADER;
/* Generated by software containing ST-Developer
 * from STEP Tools, Inc. (www.steptools.com) 
 */

FILE_DESCRIPTION(
/* description */ (''),
/* implementation_level */ '2;1');

FILE_NAME(
/* name */ 
'C:\\Workspace\\Documents\\Products\\Handling\\Rollers\\TRBB\\Customer
 step-files\\TRBB220075.stp',
/* time_stamp */ '2017-10-17T09:55:56+02:00',
/* author */ ('pb'),
/* organization */ (''),
/* preprocessor_version */ 'ST-DEVELOPER v16.5',
/* originating_system */ 'Autodesk Inventor 2017',
/* authorisation */ '');

FILE_SCHEMA (('AUTOMOTIVE_DESIGN { 1 0 10303 214 3 1 1 }'));
ENDSEC;

DATA;
#10=MECHANICAL_DESIGN_GEOMETRIC_PRESENTATION_REPRESENTATION('',(#177,#178,
#179,#180,#181,#182,#183,#184,#185,#186,#187,#188),#344);
#11=SHAPE_REPRESENTATION_RELATIONSHIP('SRR','None',#353,#12);
#12=ADVANCED_BREP_SHAPE_REPRESENTATION('',(#13),#343);
#13=MANIFOLD_SOLID_BREP('Solid2',#202);
#14=CONICAL_SURFACE('',#220,108.687670047111,4.99999999999994);
#15=CONICAL_SURFACE('',#224,108.687670047111,4.99999999999997);
#16=CYLINDRICAL_SURFACE('',#216,22.5);
#17=CYLINDRICAL_SURFACE('',#222,110.);
#18=CYLINDRICAL_SURFACE('',#228,22.5);
#19=CYLINDRICAL_SURFACE('',#232,15.);
#20=FACE_BOUND('',#56,.T.);
#21=FACE_BOUND('',#58,.T.);
#22=FACE_BOUND('',#60,.T.);
#23=FACE_BOUND('',#62,.T.);
#24=FACE_BOUND('',#64,.T.);
#25=FACE_BOUND('',#66,.T.);
#26=FACE_BOUND('',#68,.T.);
#27=FACE_BOUND('',#70,.T.);
#28=FACE_BOUND('',#72,.T.);
#29=CIRCLE('',#214,22.5);
#30=CIRCLE('',#215,15.);
#31=CIRCLE('',#217,22.5);
#32=CIRCLE('',#219,107.375340094222);
#33=CIRCLE('',#221,110.);
#34=CIRCLE('',#223,110.);
#35=CIRCLE('',#225,107.375340094222);
#36=CIRCLE('',#227,22.5);
#37=CIRCLE('',#229,22.5);
#38=CIRCLE('',#231,15.);
#39=FACE_OUTER_BOUND('',#52,.T.);
#40=FACE_OUTER_BOUND('',#53,.T.);
#41=FACE_OUTER_BOUND('',#54,.T.);
#42=FACE_OUTER_BOUND('',#55,.T.);
#43=FACE_OUTER_BOUND('',#57,.T.);
#44=FACE_OUTER_BOUND('',#59,.T.);
#45=FACE_OUTER_BOUND('',#61,.T.);
#46=FACE_OUTER_BOUND('',#63,.T.);
#47=FACE_OUTER_BOUND('',#65,.T.);
#48=FACE_OUTER_BOUND('',#67,.T.);
#49=FACE_OUTER_BOUND('',#69,.T.);
#50=FACE_OUTER_BOUND('',#71,.T.);
#51=FACE_OUTER_BOUND('',#73,.T.);
#52=EDGE_LOOP('',(#130,#131,#132,#133));
#53=EDGE_LOOP('',(#134,#135,#136,#137));
#54=EDGE_LOOP('',(#138,#139,#140,#141));
#55=EDGE_LOOP('',(#142));
#56=EDGE_LOOP('',(#143,#144,#145,#146));
#57=EDGE_LOOP('',(#147));
#58=EDGE_LOOP('',(#148));
#59=EDGE_LOOP('',(#149));
#60=EDGE_LOOP('',(#150));
#61=EDGE_LOOP('',(#151));
#62=EDGE_LOOP('',(#152));
#63=EDGE_LOOP('',(#153));
#64=EDGE_LOOP('',(#154));
#65=EDGE_LOOP('',(#155));
#66=EDGE_LOOP('',(#156));
#67=EDGE_LOOP('',(#157));
#68=EDGE_LOOP('',(#158));
#69=EDGE_LOOP('',(#159));
#70=EDGE_LOOP('',(#160));
#71=EDGE_LOOP('',(#161));
#72=EDGE_LOOP('',(#162,#163,#164,#165));
#73=EDGE_LOOP('',(#166,#167,#168,#169));
#74=LINE('',#295,#84);
#75=LINE('',#297,#85);
#76=LINE('',#299,#86);
#77=LINE('',#300,#87);
#78=LINE('',#303,#88);
#79=LINE('',#305,#89);
#80=LINE('',#306,#90);
#81=LINE('',#310,#91);
#82=LINE('',#311,#92);
#83=LINE('',#312,#93);
#84=VECTOR('',#237,10.);
#85=VECTOR('',#238,10.);
#86=VECTOR('',#239,10.);
#87=VECTOR('',#240,10.);
#88=VECTOR('',#243,10.);
#89=VECTOR('',#244,10.);
#90=VECTOR('',#245,10.);
#91=VECTOR('',#248,10.);
#92=VECTOR('',#249,10.);
#93=VECTOR('',#250,10.);
#94=VERTEX_POINT('',#293);
#95=VERTEX_POINT('',#294);
#96=VERTEX_POINT('',#296);
#97=VERTEX_POINT('',#298);
#98=VERTEX_POINT('',#302);
#99=VERTEX_POINT('',#304);
#100=VERTEX_POINT('',#308);
#101=VERTEX_POINT('',#309);
#102=VERTEX_POINT('',#314);
#103=VERTEX_POINT('',#318);
#104=VERTEX_POINT('',#321);
#105=VERTEX_POINT('',#324);
#106=VERTEX_POINT('',#327);
#107=VERTEX_POINT('',#330);
#108=VERTEX_POINT('',#333);
#109=VERTEX_POINT('',#336);
#110=EDGE_CURVE('',#94,#95,#74,.T.);
#111=EDGE_CURVE('',#96,#94,#75,.T.);
#112=EDGE_CURVE('',#96,#97,#76,.T.);
#113=EDGE_CURVE('',#95,#97,#77,.T.);
#114=EDGE_CURVE('',#97,#98,#78,.T.);
#115=EDGE_CURVE('',#99,#96,#79,.T.);
#116=EDGE_CURVE('',#99,#98,#80,.T.);
#117=EDGE_CURVE('',#100,#101,#81,.T.);
#118=EDGE_CURVE('',#98,#100,#82,.T.);
#119=EDGE_CURVE('',#101,#99,#83,.T.);
#120=EDGE_CURVE('',#102,#102,#29,.T.);
#121=EDGE_CURVE('',#94,#101,#30,.T.);
#122=EDGE_CURVE('',#103,#103,#31,.T.);
#123=EDGE_CURVE('',#104,#104,#32,.T.);
#124=EDGE_CURVE('',#105,#105,#33,.T.);
#125=EDGE_CURVE('',#106,#106,#34,.T.);
#126=EDGE_CURVE('',#107,#107,#35,.T.);
#127=EDGE_CURVE('',#108,#108,#36,.T.);
#128=EDGE_CURVE('',#109,#109,#37,.T.);
#129=EDGE_CURVE('',#95,#100,#38,.T.);
#130=ORIENTED_EDGE('',*,*,#110,.F.);
#131=ORIENTED_EDGE('',*,*,#111,.F.);
#132=ORIENTED_EDGE('',*,*,#112,.T.);
#133=ORIENTED_EDGE('',*,*,#113,.F.);
#134=ORIENTED_EDGE('',*,*,#114,.F.);
#135=ORIENTED_EDGE('',*,*,#112,.F.);
#136=ORIENTED_EDGE('',*,*,#115,.F.);
#137=ORIENTED_EDGE('',*,*,#116,.T.);
#138=ORIENTED_EDGE('',*,*,#117,.F.);
#139=ORIENTED_EDGE('',*,*,#118,.F.);
#140=ORIENTED_EDGE('',*,*,#116,.F.);
#141=ORIENTED_EDGE('',*,*,#119,.F.);
#142=ORIENTED_EDGE('',*,*,#120,.F.);
#143=ORIENTED_EDGE('',*,*,#119,.T.);
#144=ORIENTED_EDGE('',*,*,#115,.T.);
#145=ORIENTED_EDGE('',*,*,#111,.T.);
#146=ORIENTED_EDGE('',*,*,#121,.T.);
#147=ORIENTED_EDGE('',*,*,#120,.T.);
#148=ORIENTED_EDGE('',*,*,#122,.F.);
#149=ORIENTED_EDGE('',*,*,#123,.F.);
#150=ORIENTED_EDGE('',*,*,#122,.T.);
#151=ORIENTED_EDGE('',*,*,#123,.T.);
#152=ORIENTED_EDGE('',*,*,#124,.F.);
#153=ORIENTED_EDGE('',*,*,#124,.T.);
#154=ORIENTED_EDGE('',*,*,#125,.F.);
#155=ORIENTED_EDGE('',*,*,#125,.T.);
#156=ORIENTED_EDGE('',*,*,#126,.F.);
#157=ORIENTED_EDGE('',*,*,#126,.T.);
#158=ORIENTED_EDGE('',*,*,#127,.F.);
#159=ORIENTED_EDGE('',*,*,#127,.T.);
#160=ORIENTED_EDGE('',*,*,#128,.F.);
#161=ORIENTED_EDGE('',*,*,#128,.T.);
#162=ORIENTED_EDGE('',*,*,#118,.T.);
#163=ORIENTED_EDGE('',*,*,#129,.F.);
#164=ORIENTED_EDGE('',*,*,#113,.T.);
#165=ORIENTED_EDGE('',*,*,#114,.T.);
#166=ORIENTED_EDGE('',*,*,#117,.T.);
#167=ORIENTED_EDGE('',*,*,#121,.F.);
#168=ORIENTED_EDGE('',*,*,#110,.T.);
#169=ORIENTED_EDGE('',*,*,#129,.T.);
#170=PLANE('',#210);
#171=PLANE('',#211);
#172=PLANE('',#212);
#173=PLANE('',#213);
#174=PLANE('',#218);
#175=PLANE('',#226);
#176=PLANE('',#230);
#177=STYLED_ITEM('',(#363),#189);
#178=STYLED_ITEM('',(#363),#190);
#179=STYLED_ITEM('',(#363),#191);
#180=STYLED_ITEM('',(#363),#192);
#181=STYLED_ITEM('',(#364),#193);
#182=STYLED_ITEM('',(#364),#194);
#183=STYLED_ITEM('',(#363),#196);
#184=STYLED_ITEM('',(#364),#198);
#185=STYLED_ITEM('',(#364),#199);
#186=STYLED_ITEM('',(#363),#200);
#187=STYLED_ITEM('',(#363),#201);
#188=STYLED_ITEM('',(#362),#13);
#189=ADVANCED_FACE('',(#39),#170,.F.);
#190=ADVANCED_FACE('',(#40),#171,.F.);
#191=ADVANCED_FACE('',(#41),#172,.F.);
#192=ADVANCED_FACE('',(#42,#20),#173,.T.);
#193=ADVANCED_FACE('',(#43,#21),#16,.F.);
#194=ADVANCED_FACE('',(#44,#22),#174,.T.);
#195=ADVANCED_FACE('',(#45,#23),#14,.T.);
#196=ADVANCED_FACE('',(#46,#24),#17,.T.);
#197=ADVANCED_FACE('',(#47,#25),#15,.T.);
#198=ADVANCED_FACE('',(#48,#26),#175,.T.);
#199=ADVANCED_FACE('',(#49,#27),#18,.F.);
#200=ADVANCED_FACE('',(#50,#28),#176,.T.);
#201=ADVANCED_FACE('',(#51),#19,.F.);
#202=CLOSED_SHELL('',(#189,#190,#191,#192,#193,#194,#195,#196,#197,#198,
#199,#200,#201));
#203=DATE_TIME_ROLE('creation_date');
#204=APPLIED_DATE_AND_TIME_ASSIGNMENT(#205,#203,(#355));
#205=DATE_AND_TIME(#206,#207);
#206=CALENDAR_DATE(2017,17,10);
#207=LOCAL_TIME(6,4,14.,#208);
#208=COORDINATED_UNIVERSAL_TIME_OFFSET(0,0,.BEHIND.);
#209=AXIS2_PLACEMENT_3D('placement',#291,#233,#234);
#210=AXIS2_PLACEMENT_3D('',#292,#235,#236);
#211=AXIS2_PLACEMENT_3D('',#301,#241,#242);
#212=AXIS2_PLACEMENT_3D('',#307,#246,#247);
#213=AXIS2_PLACEMENT_3D('',#313,#251,#252);
#214=AXIS2_PLACEMENT_3D('',#315,#253,#254);
#215=AXIS2_PLACEMENT_3D('',#316,#255,#256);
#216=AXIS2_PLACEMENT_3D('',#317,#257,#258);
#217=AXIS2_PLACEMENT_3D('',#319,#259,#260);
#218=AXIS2_PLACEMENT_3D('',#320,#261,#262);
#219=AXIS2_PLACEMENT_3D('',#322,#263,#264);
#220=AXIS2_PLACEMENT_3D('',#323,#265,#266);
#221=AXIS2_PLACEMENT_3D('',#325,#267,#268);
#222=AXIS2_PLACEMENT_3D('',#326,#269,#270);
#223=AXIS2_PLACEMENT_3D('',#328,#271,#272);
#224=AXIS2_PLACEMENT_3D('',#329,#273,#274);
#225=AXIS2_PLACEMENT_3D('',#331,#275,#276);
#226=AXIS2_PLACEMENT_3D('',#332,#277,#278);
#227=AXIS2_PLACEMENT_3D('',#334,#279,#280);
#228=AXIS2_PLACEMENT_3D('',#335,#281,#282);
#229=AXIS2_PLACEMENT_3D('',#337,#283,#284);
#230=AXIS2_PLACEMENT_3D('',#338,#285,#286);
#231=AXIS2_PLACEMENT_3D('',#339,#287,#288);
#232=AXIS2_PLACEMENT_3D('',#340,#289,#290);
#233=DIRECTION('axis',(0.,0.,1.));
#234=DIRECTION('refdir',(1.,0.,0.));
#235=DIRECTION('center_axis',(6.88476578317886E-32,1.,2.22044604925031E-16));
#236=DIRECTION('ref_axis',(0.,1.77635683940025E-16,-1.));
#237=DIRECTION('',(-1.,0.,3.06161699786838E-16));
#238=DIRECTION('',(-3.06161699786838E-16,2.22044604925031E-16,-1.));
#239=DIRECTION('',(-1.,0.,3.10062286156575E-16));
#240=DIRECTION('',(3.06161699786838E-16,-2.22044604925031E-16,1.));
#241=DIRECTION('center_axis',(3.10062286156575E-16,0.,1.));
#242=DIRECTION('ref_axis',(0.,1.,0.));
#243=DIRECTION('',(0.,-1.,0.));
#244=DIRECTION('',(0.,1.,0.));
#245=DIRECTION('',(-1.,0.,3.10062286156575E-16));
#246=DIRECTION('center_axis',(-3.44238289158943E-32,-1.,-1.11022302462516E-16));
#247=DIRECTION('ref_axis',(0.,-8.88178419700125E-17,1.));
#248=DIRECTION('',(1.,0.,-3.06161699786838E-16));
#249=DIRECTION('',(-3.06161699786838E-16,1.11022302462516E-16,-1.));
#250=DIRECTION('',(3.06161699786838E-16,-1.11022302462516E-16,1.));
#251=DIRECTION('center_axis',(1.,0.,-3.06161699786838E-16));
#252=DIRECTION('ref_axis',(0.,0.,-1.));
#253=DIRECTION('center_axis',(-1.,0.,3.06161699786838E-16));
#254=DIRECTION('ref_axis',(3.06161699786838E-16,0.,1.));
#255=DIRECTION('center_axis',(-1.,0.,3.06161699786838E-16));
#256=DIRECTION('ref_axis',(3.06161699786838E-16,0.,1.));
#257=DIRECTION('center_axis',(-1.,0.,3.06161699786838E-16));
#258=DIRECTION('ref_axis',(5.9211894646675E-16,0.,1.));
#259=DIRECTION('center_axis',(-1.,0.,3.06161699786838E-16));
#260=DIRECTION('ref_axis',(3.06161699786838E-16,0.,1.));
#261=DIRECTION('center_axis',(1.,0.,-3.06161699786838E-16));
#262=DIRECTION('ref_axis',(0.,0.,-1.));
#263=DIRECTION('center_axis',(-1.,0.,3.06161699786838E-16));
#264=DIRECTION('ref_axis',(3.06161699786838E-16,0.,1.));
#265=DIRECTION('center_axis',(-1.,0.,3.06161699786838E-16));
#266=DIRECTION('ref_axis',(5.9211894646675E-16,0.,1.));
#267=DIRECTION('center_axis',(-1.,0.,3.06161699786838E-16));
#268=DIRECTION('ref_axis',(3.06161699786838E-16,0.,1.));
#269=DIRECTION('center_axis',(-1.,0.,3.06161699786838E-16));
#270=DIRECTION('ref_axis',(5.9211894646675E-16,0.,1.));
#271=DIRECTION('center_axis',(-1.,0.,3.06161699786838E-16));
#272=DIRECTION('ref_axis',(3.06161699786838E-16,0.,1.));
#273=DIRECTION('center_axis',(1.,0.,-3.06161699786838E-16));
#274=DIRECTION('ref_axis',(5.9211894646675E-16,0.,1.));
#275=DIRECTION('center_axis',(-1.,0.,3.06161699786838E-16));
#276=DIRECTION('ref_axis',(3.06161699786838E-16,0.,1.));
#277=DIRECTION('center_axis',(-1.,0.,3.06161699786838E-16));
#278=DIRECTION('ref_axis',(0.,0.,1.));
#279=DIRECTION('center_axis',(-1.,0.,3.06161699786838E-16));
#280=DIRECTION('ref_axis',(3.06161699786838E-16,0.,1.));
#281=DIRECTION('center_axis',(-1.,0.,3.06161699786838E-16));
#282=DIRECTION('ref_axis',(5.9211894646675E-16,0.,1.));
#283=DIRECTION('center_axis',(-1.,0.,3.06161699786838E-16));
#284=DIRECTION('ref_axis',(3.06161699786838E-16,0.,1.));
#285=DIRECTION('center_axis',(-1.,0.,3.06161699786838E-16));
#286=DIRECTION('ref_axis',(0.,0.,1.));
#287=DIRECTION('center_axis',(-1.,0.,3.06161699786838E-16));
#288=DIRECTION('ref_axis',(3.06161699786838E-16,0.,1.));
#289=DIRECTION('center_axis',(-1.,0.,3.06161699786838E-16));
#290=DIRECTION('ref_axis',(5.9211894646675E-16,0.,1.));
#291=CARTESIAN_POINT('',(0.,0.,0.));
#292=CARTESIAN_POINT('Origin',(36.5,4.,18.2));
#293=CARTESIAN_POINT('',(36.5,4.,14.456832294801));
#294=CARTESIAN_POINT('',(-36.5,4.,14.456832294801));
#295=CARTESIAN_POINT('',(-5.80389168401021E-16,4.,14.456832294801));
#296=CARTESIAN_POINT('',(36.5,4.,18.2));
#297=CARTESIAN_POINT('',(36.5,4.,20.35));
#298=CARTESIAN_POINT('',(-36.5,4.,18.2));
#299=CARTESIAN_POINT('',(36.5,4.,18.2));
#300=CARTESIAN_POINT('',(-36.5,4.,16.6));
#301=CARTESIAN_POINT('Origin',(36.5,-4.,18.2));
#302=CARTESIAN_POINT('',(-36.5,-4.,18.2));
#303=CARTESIAN_POINT('',(-36.5,-2.,18.2));
#304=CARTESIAN_POINT('',(36.5,-4.,18.2));
#305=CARTESIAN_POINT('',(36.5,-2.,18.2));
#306=CARTESIAN_POINT('',(36.5,-4.,18.2));
#307=CARTESIAN_POINT('Origin',(36.5,-4.,8.19999999999999));
#308=CARTESIAN_POINT('',(-36.5,-4.,14.456832294801));
#309=CARTESIAN_POINT('',(36.5,-4.,14.456832294801));
#310=CARTESIAN_POINT('',(9.5041933053317E-16,-4.,14.456832294801));
#311=CARTESIAN_POINT('',(-36.5,-4.,11.6));
#312=CARTESIAN_POINT('',(36.5,-4.,15.35));
#313=CARTESIAN_POINT('Origin',(36.5,0.,22.5));
#314=CARTESIAN_POINT('',(36.5,0.,22.5));
#315=CARTESIAN_POINT('Origin',(36.5,0.,-4.28626379701573E-15));
#316=CARTESIAN_POINT('Origin',(36.5,0.,-4.28626379701573E-15));
#317=CARTESIAN_POINT('Origin',(37.,0.,-4.43934464690915E-15));
#318=CARTESIAN_POINT('',(37.5,0.,22.5));
#319=CARTESIAN_POINT('Origin',(37.5,0.,-4.59242549680257E-15));
#320=CARTESIAN_POINT('Origin',(37.5,0.,107.375340094222));
#321=CARTESIAN_POINT('',(37.5,0.,107.375340094222));
#322=CARTESIAN_POINT('Origin',(37.5,0.,-4.59242549680257E-15));
#323=CARTESIAN_POINT('Origin',(22.5,0.,1.08468374467889E-29));
#324=CARTESIAN_POINT('',(7.5,0.,110.));
#325=CARTESIAN_POINT('Origin',(7.49999999999997,0.,4.59242549680259E-15));
#326=CARTESIAN_POINT('Origin',(-3.38618022510673E-14,0.,6.88863824520388E-15));
#327=CARTESIAN_POINT('',(-7.5,0.,110.));
#328=CARTESIAN_POINT('Origin',(-7.50000000000003,0.,9.18485099360516E-15));
#329=CARTESIAN_POINT('Origin',(-22.5,0.,1.37772764904077E-14));
#330=CARTESIAN_POINT('',(-37.5,0.,107.375340094222));
#331=CARTESIAN_POINT('Origin',(-37.5000000000001,0.,1.83697019872103E-14));
#332=CARTESIAN_POINT('Origin',(-37.5,0.,22.5));
#333=CARTESIAN_POINT('',(-37.5,0.,22.5));
#334=CARTESIAN_POINT('Origin',(-37.5,0.,1.83697019872103E-14));
#335=CARTESIAN_POINT('Origin',(-37.,0.,1.82166211373169E-14));
#336=CARTESIAN_POINT('',(-36.5,0.,22.5));
#337=CARTESIAN_POINT('Origin',(-36.5,0.,1.80635402874235E-14));
#338=CARTESIAN_POINT('Origin',(-36.5,0.,15.));
#339=CARTESIAN_POINT('Origin',(-36.5,0.,1.80635402874235E-14));
#340=CARTESIAN_POINT('Origin',(-4.44089209850063E-15,0.,6.88863824520387E-15));
#341=UNCERTAINTY_MEASURE_WITH_UNIT(LENGTH_MEASURE(0.01),#345,
'DISTANCE_ACCURACY_VALUE',
'Maximum model space distance between geometric entities at asserted c
onnectivities');
#342=UNCERTAINTY_MEASURE_WITH_UNIT(LENGTH_MEASURE(1.E-6),#345,
'DISTANCE_ACCURACY_VALUE',
'Maximum model space distance between geometric entities at asserted c
onnectivities');
#343=(
GEOMETRIC_REPRESENTATION_CONTEXT(3)
GLOBAL_UNCERTAINTY_ASSIGNED_CONTEXT((#341))
GLOBAL_UNIT_ASSIGNED_CONTEXT((#345,#348,#346))
REPRESENTATION_CONTEXT('','3D')
);
#344=(
GEOMETRIC_REPRESENTATION_CONTEXT(3)
GLOBAL_UNCERTAINTY_ASSIGNED_CONTEXT((#342))
GLOBAL_UNIT_ASSIGNED_CONTEXT((#345,#348,#346))
REPRESENTATION_CONTEXT('','3D')
);
#345=(
LENGTH_UNIT()
NAMED_UNIT(*)
SI_UNIT(.MILLI.,.METRE.)
);
#346=(
NAMED_UNIT(*)
SI_UNIT($,.STERADIAN.)
SOLID_ANGLE_UNIT()
);
#347=DIMENSIONAL_EXPONENTS(0.,0.,0.,0.,0.,0.,0.);
#348=(
CONVERSION_BASED_UNIT('degree',#350)
NAMED_UNIT(#347)
PLANE_ANGLE_UNIT()
);
#349=(
NAMED_UNIT(*)
PLANE_ANGLE_UNIT()
SI_UNIT($,.RADIAN.)
);
#350=PLANE_ANGLE_MEASURE_WITH_UNIT(PLANE_ANGLE_MEASURE(0.01745329252),#349);
#351=SHAPE_DEFINITION_REPRESENTATION(#352,#353);
#352=PRODUCT_DEFINITION_SHAPE('',$,#355);
#353=SHAPE_REPRESENTATION('',(#209),#343);
#354=PRODUCT_DEFINITION_CONTEXT('part definition',#359,'design');
#355=PRODUCT_DEFINITION('Part1','Part1',#356,#354);
#356=PRODUCT_DEFINITION_FORMATION('',$,#361);
#357=PRODUCT_RELATED_PRODUCT_CATEGORY('Part1','Part1',(#361));
#358=APPLICATION_PROTOCOL_DEFINITION('international standard',
'automotive_design',2009,#359);
#359=APPLICATION_CONTEXT(
'Core Data for Automotive Mechanical Design Process');
#360=PRODUCT_CONTEXT('part definition',#359,'mechanical');
#361=PRODUCT('Part1','Part1',$,(#360));
#362=PRESENTATION_STYLE_ASSIGNMENT((#365));
#363=PRESENTATION_STYLE_ASSIGNMENT((#366));
#364=PRESENTATION_STYLE_ASSIGNMENT((#367));
#365=SURFACE_STYLE_USAGE(.BOTH.,#368);
#366=SURFACE_STYLE_USAGE(.BOTH.,#369);
#367=SURFACE_STYLE_USAGE(.BOTH.,#370);
#368=SURFACE_SIDE_STYLE('',(#371));
#369=SURFACE_SIDE_STYLE('',(#372));
#370=SURFACE_SIDE_STYLE('',(#373));
#371=SURFACE_STYLE_FILL_AREA(#374);
#372=SURFACE_STYLE_FILL_AREA(#375);
#373=SURFACE_STYLE_FILL_AREA(#376);
#374=FILL_AREA_STYLE('',(#377));
#375=FILL_AREA_STYLE('',(#378));
#376=FILL_AREA_STYLE('',(#379));
#377=FILL_AREA_STYLE_COLOUR('',#380);
#378=FILL_AREA_STYLE_COLOUR('',#381);
#379=FILL_AREA_STYLE_COLOUR('',#382);
#380=COLOUR_RGB('',0.745098039215686,0.737254901960784,0.729411764705882);
#381=COLOUR_RGB('',0.905882352941176,0.83921568627451,0.674509803921569);
#382=COLOUR_RGB('',0.698039215686274,0.,0.);
ENDSEC;
END-ISO-10303-21;
