ISO-10303-21;
HEADER;
/* Generated by software containing ST-Developer
 * from STEP Tools, Inc. (www.steptools.com) 
 */

FILE_DESCRIPTION(
/* description */ (''),
/* implementation_level */ '2;1');

FILE_NAME(
/* name */ 
'C:\\Workspace\\Documents\\Products\\Handling\\Rollers\\TRBB\\Customer
 step-files\\TRBB400094.stp',
/* time_stamp */ '2017-10-17T10:44:32+02:00',
/* author */ ('pb'),
/* organization */ (''),
/* preprocessor_version */ 'ST-DEVELOPER v16.5',
/* originating_system */ 'Autodesk Inventor 2017',
/* authorisation */ '');

FILE_SCHEMA (('AUTOMOTIVE_DESIGN { 1 0 10303 214 3 1 1 }'));
ENDSEC;

DATA;
#10=MECHANICAL_DESIGN_GEOMETRIC_PRESENTATION_REPRESENTATION('',(#186,#185,
#174,#175,#176,#177,#183,#181,#182,#184,#179,#180,#178),#361);
#11=SHAPE_REPRESENTATION_RELATIONSHIP('SRR','None',#370,#12);
#12=ADVANCED_BREP_SHAPE_REPRESENTATION('',(#13),#360);
#13=MANIFOLD_SOLID_BREP('Solid2',#203);
#14=CONICAL_SURFACE('',#227,198.706403121225,7.49999999999997);
#15=CONICAL_SURFACE('',#229,199.912724675359,0.999999999999993);
#16=CONICAL_SURFACE('',#233,199.912724675359,0.999999999999994);
#17=CONICAL_SURFACE('',#235,198.706403121225,7.49999999999995);
#18=PLANE('',#214);
#19=PLANE('',#219);
#20=PLANE('',#221);
#21=PLANE('',#225);
#22=PLANE('',#237);
#23=PLANE('',#240);
#24=FACE_BOUND('',#57,.T.);
#25=FACE_BOUND('',#59,.T.);
#26=FACE_BOUND('',#61,.T.);
#27=FACE_BOUND('',#63,.T.);
#28=FACE_BOUND('',#65,.T.);
#29=FACE_BOUND('',#67,.T.);
#30=FACE_BOUND('',#69,.T.);
#31=FACE_BOUND('',#71,.T.);
#32=FACE_BOUND('',#73,.T.);
#33=FACE_BOUND('',#75,.T.);
#34=FACE_BOUND('',#77,.T.);
#35=FACE_BOUND('',#79,.T.);
#36=FACE_BOUND('',#81,.T.);
#37=FACE_BOUND('',#83,.T.);
#38=FACE_BOUND('',#85,.T.);
#39=FACE_BOUND('',#87,.T.);
#40=FACE_OUTER_BOUND('',#56,.T.);
#41=FACE_OUTER_BOUND('',#58,.T.);
#42=FACE_OUTER_BOUND('',#60,.T.);
#43=FACE_OUTER_BOUND('',#62,.T.);
#44=FACE_OUTER_BOUND('',#64,.T.);
#45=FACE_OUTER_BOUND('',#66,.T.);
#46=FACE_OUTER_BOUND('',#68,.T.);
#47=FACE_OUTER_BOUND('',#70,.T.);
#48=FACE_OUTER_BOUND('',#72,.T.);
#49=FACE_OUTER_BOUND('',#74,.T.);
#50=FACE_OUTER_BOUND('',#76,.T.);
#51=FACE_OUTER_BOUND('',#78,.T.);
#52=FACE_OUTER_BOUND('',#80,.T.);
#53=FACE_OUTER_BOUND('',#82,.T.);
#54=FACE_OUTER_BOUND('',#84,.T.);
#55=FACE_OUTER_BOUND('',#86,.T.);
#56=EDGE_LOOP('',(#136));
#57=EDGE_LOOP('',(#137));
#58=EDGE_LOOP('',(#138));
#59=EDGE_LOOP('',(#139));
#60=EDGE_LOOP('',(#140));
#61=EDGE_LOOP('',(#141));
#62=EDGE_LOOP('',(#142));
#63=EDGE_LOOP('',(#143));
#64=EDGE_LOOP('',(#144));
#65=EDGE_LOOP('',(#145));
#66=EDGE_LOOP('',(#146));
#67=EDGE_LOOP('',(#147));
#68=EDGE_LOOP('',(#148));
#69=EDGE_LOOP('',(#149));
#70=EDGE_LOOP('',(#150));
#71=EDGE_LOOP('',(#151));
#72=EDGE_LOOP('',(#152));
#73=EDGE_LOOP('',(#153));
#74=EDGE_LOOP('',(#154));
#75=EDGE_LOOP('',(#155));
#76=EDGE_LOOP('',(#156));
#77=EDGE_LOOP('',(#157));
#78=EDGE_LOOP('',(#158));
#79=EDGE_LOOP('',(#159));
#80=EDGE_LOOP('',(#160));
#81=EDGE_LOOP('',(#161));
#82=EDGE_LOOP('',(#162));
#83=EDGE_LOOP('',(#163));
#84=EDGE_LOOP('',(#164));
#85=EDGE_LOOP('',(#165));
#86=EDGE_LOOP('',(#166));
#87=EDGE_LOOP('',(#167));
#88=CIRCLE('',#212,177.5);
#89=CIRCLE('',#213,177.5);
#90=CIRCLE('',#215,90.);
#91=CIRCLE('',#217,177.5);
#92=CIRCLE('',#218,177.5);
#93=CIRCLE('',#220,90.);
#94=CIRCLE('',#222,90.);
#95=CIRCLE('',#223,52.5);
#96=CIRCLE('',#226,197.587356891732);
#97=CIRCLE('',#228,199.825449350718);
#98=CIRCLE('',#230,200.);
#99=CIRCLE('',#232,200.);
#100=CIRCLE('',#234,199.825449350718);
#101=CIRCLE('',#236,197.587356891732);
#102=CIRCLE('',#239,90.);
#103=CIRCLE('',#241,52.5);
#104=VERTEX_POINT('',#311);
#105=VERTEX_POINT('',#313);
#106=VERTEX_POINT('',#316);
#107=VERTEX_POINT('',#319);
#108=VERTEX_POINT('',#321);
#109=VERTEX_POINT('',#324);
#110=VERTEX_POINT('',#327);
#111=VERTEX_POINT('',#329);
#112=VERTEX_POINT('',#333);
#113=VERTEX_POINT('',#336);
#114=VERTEX_POINT('',#339);
#115=VERTEX_POINT('',#342);
#116=VERTEX_POINT('',#345);
#117=VERTEX_POINT('',#348);
#118=VERTEX_POINT('',#352);
#119=VERTEX_POINT('',#355);
#120=EDGE_CURVE('',#104,#104,#88,.T.);
#121=EDGE_CURVE('',#105,#105,#89,.T.);
#122=EDGE_CURVE('',#106,#106,#90,.T.);
#123=EDGE_CURVE('',#107,#107,#91,.T.);
#124=EDGE_CURVE('',#108,#108,#92,.T.);
#125=EDGE_CURVE('',#109,#109,#93,.T.);
#126=EDGE_CURVE('',#110,#110,#94,.T.);
#127=EDGE_CURVE('',#111,#111,#95,.T.);
#128=EDGE_CURVE('',#112,#112,#96,.T.);
#129=EDGE_CURVE('',#113,#113,#97,.T.);
#130=EDGE_CURVE('',#114,#114,#98,.T.);
#131=EDGE_CURVE('',#115,#115,#99,.T.);
#132=EDGE_CURVE('',#116,#116,#100,.T.);
#133=EDGE_CURVE('',#117,#117,#101,.T.);
#134=EDGE_CURVE('',#118,#118,#102,.T.);
#135=EDGE_CURVE('',#119,#119,#103,.T.);
#136=ORIENTED_EDGE('',*,*,#120,.F.);
#137=ORIENTED_EDGE('',*,*,#121,.F.);
#138=ORIENTED_EDGE('',*,*,#120,.T.);
#139=ORIENTED_EDGE('',*,*,#122,.F.);
#140=ORIENTED_EDGE('',*,*,#123,.T.);
#141=ORIENTED_EDGE('',*,*,#124,.F.);
#142=ORIENTED_EDGE('',*,*,#123,.F.);
#143=ORIENTED_EDGE('',*,*,#125,.F.);
#144=ORIENTED_EDGE('',*,*,#126,.F.);
#145=ORIENTED_EDGE('',*,*,#127,.T.);
#146=ORIENTED_EDGE('',*,*,#125,.T.);
#147=ORIENTED_EDGE('',*,*,#126,.T.);
#148=ORIENTED_EDGE('',*,*,#128,.F.);
#149=ORIENTED_EDGE('',*,*,#124,.T.);
#150=ORIENTED_EDGE('',*,*,#128,.T.);
#151=ORIENTED_EDGE('',*,*,#129,.F.);
#152=ORIENTED_EDGE('',*,*,#129,.T.);
#153=ORIENTED_EDGE('',*,*,#130,.F.);
#154=ORIENTED_EDGE('',*,*,#130,.T.);
#155=ORIENTED_EDGE('',*,*,#131,.F.);
#156=ORIENTED_EDGE('',*,*,#131,.T.);
#157=ORIENTED_EDGE('',*,*,#132,.F.);
#158=ORIENTED_EDGE('',*,*,#132,.T.);
#159=ORIENTED_EDGE('',*,*,#133,.F.);
#160=ORIENTED_EDGE('',*,*,#133,.T.);
#161=ORIENTED_EDGE('',*,*,#121,.T.);
#162=ORIENTED_EDGE('',*,*,#122,.T.);
#163=ORIENTED_EDGE('',*,*,#134,.F.);
#164=ORIENTED_EDGE('',*,*,#134,.T.);
#165=ORIENTED_EDGE('',*,*,#135,.F.);
#166=ORIENTED_EDGE('',*,*,#135,.T.);
#167=ORIENTED_EDGE('',*,*,#127,.F.);
#168=CYLINDRICAL_SURFACE('',#211,177.5);
#169=CYLINDRICAL_SURFACE('',#216,177.5);
#170=CYLINDRICAL_SURFACE('',#224,90.);
#171=CYLINDRICAL_SURFACE('',#231,200.);
#172=CYLINDRICAL_SURFACE('',#238,90.);
#173=CYLINDRICAL_SURFACE('',#242,52.5);
#174=STYLED_ITEM('',(#380),#187);
#175=STYLED_ITEM('',(#380),#188);
#176=STYLED_ITEM('',(#380),#189);
#177=STYLED_ITEM('',(#380),#190);
#178=STYLED_ITEM('',(#381),#191);
#179=STYLED_ITEM('',(#380),#192);
#180=STYLED_ITEM('',(#380),#193);
#181=STYLED_ITEM('',(#381),#196);
#182=STYLED_ITEM('',(#380),#199);
#183=STYLED_ITEM('',(#380),#200);
#184=STYLED_ITEM('',(#381),#201);
#185=STYLED_ITEM('',(#381),#202);
#186=STYLED_ITEM('',(#379),#13);
#187=ADVANCED_FACE('',(#40,#24),#168,.F.);
#188=ADVANCED_FACE('',(#41,#25),#18,.T.);
#189=ADVANCED_FACE('',(#42,#26),#169,.F.);
#190=ADVANCED_FACE('',(#43,#27),#19,.F.);
#191=ADVANCED_FACE('',(#44,#28),#20,.T.);
#192=ADVANCED_FACE('',(#45,#29),#170,.F.);
#193=ADVANCED_FACE('',(#46,#30),#21,.T.);
#194=ADVANCED_FACE('',(#47,#31),#14,.T.);
#195=ADVANCED_FACE('',(#48,#32),#15,.T.);
#196=ADVANCED_FACE('',(#49,#33),#171,.T.);
#197=ADVANCED_FACE('',(#50,#34),#16,.T.);
#198=ADVANCED_FACE('',(#51,#35),#17,.T.);
#199=ADVANCED_FACE('',(#52,#36),#22,.T.);
#200=ADVANCED_FACE('',(#53,#37),#172,.F.);
#201=ADVANCED_FACE('',(#54,#38),#23,.T.);
#202=ADVANCED_FACE('',(#55,#39),#173,.F.);
#203=CLOSED_SHELL('',(#187,#188,#189,#190,#191,#192,#193,#194,#195,#196,
#197,#198,#199,#200,#201,#202));
#204=DATE_TIME_ROLE('creation_date');
#205=APPLIED_DATE_AND_TIME_ASSIGNMENT(#206,#204,(#372));
#206=DATE_AND_TIME(#207,#208);
#207=CALENDAR_DATE(2017,17,10);
#208=LOCAL_TIME(6,4,14.,#209);
#209=COORDINATED_UNIVERSAL_TIME_OFFSET(0,0,.BEHIND.);
#210=AXIS2_PLACEMENT_3D('placement',#309,#243,#244);
#211=AXIS2_PLACEMENT_3D('',#310,#245,#246);
#212=AXIS2_PLACEMENT_3D('',#312,#247,#248);
#213=AXIS2_PLACEMENT_3D('',#314,#249,#250);
#214=AXIS2_PLACEMENT_3D('',#315,#251,#252);
#215=AXIS2_PLACEMENT_3D('',#317,#253,#254);
#216=AXIS2_PLACEMENT_3D('',#318,#255,#256);
#217=AXIS2_PLACEMENT_3D('',#320,#257,#258);
#218=AXIS2_PLACEMENT_3D('',#322,#259,#260);
#219=AXIS2_PLACEMENT_3D('',#323,#261,#262);
#220=AXIS2_PLACEMENT_3D('',#325,#263,#264);
#221=AXIS2_PLACEMENT_3D('',#326,#265,#266);
#222=AXIS2_PLACEMENT_3D('',#328,#267,#268);
#223=AXIS2_PLACEMENT_3D('',#330,#269,#270);
#224=AXIS2_PLACEMENT_3D('',#331,#271,#272);
#225=AXIS2_PLACEMENT_3D('',#332,#273,#274);
#226=AXIS2_PLACEMENT_3D('',#334,#275,#276);
#227=AXIS2_PLACEMENT_3D('',#335,#277,#278);
#228=AXIS2_PLACEMENT_3D('',#337,#279,#280);
#229=AXIS2_PLACEMENT_3D('',#338,#281,#282);
#230=AXIS2_PLACEMENT_3D('',#340,#283,#284);
#231=AXIS2_PLACEMENT_3D('',#341,#285,#286);
#232=AXIS2_PLACEMENT_3D('',#343,#287,#288);
#233=AXIS2_PLACEMENT_3D('',#344,#289,#290);
#234=AXIS2_PLACEMENT_3D('',#346,#291,#292);
#235=AXIS2_PLACEMENT_3D('',#347,#293,#294);
#236=AXIS2_PLACEMENT_3D('',#349,#295,#296);
#237=AXIS2_PLACEMENT_3D('',#350,#297,#298);
#238=AXIS2_PLACEMENT_3D('',#351,#299,#300);
#239=AXIS2_PLACEMENT_3D('',#353,#301,#302);
#240=AXIS2_PLACEMENT_3D('',#354,#303,#304);
#241=AXIS2_PLACEMENT_3D('',#356,#305,#306);
#242=AXIS2_PLACEMENT_3D('',#357,#307,#308);
#243=DIRECTION('axis',(0.,0.,1.));
#244=DIRECTION('refdir',(1.,0.,0.));
#245=DIRECTION('center_axis',(-1.,0.,0.));
#246=DIRECTION('ref_axis',(0.,0.,1.));
#247=DIRECTION('center_axis',(-1.,0.,1.65812912843936E-17));
#248=DIRECTION('ref_axis',(1.65812912843936E-17,0.,1.));
#249=DIRECTION('center_axis',(1.,0.,1.65812912843936E-17));
#250=DIRECTION('ref_axis',(0.,0.,1.));
#251=DIRECTION('center_axis',(-1.,0.,1.65812912843936E-17));
#252=DIRECTION('ref_axis',(0.,0.,1.));
#253=DIRECTION('center_axis',(-1.,0.,1.65812912843936E-17));
#254=DIRECTION('ref_axis',(0.,0.,1.));
#255=DIRECTION('center_axis',(-1.,0.,0.));
#256=DIRECTION('ref_axis',(0.,0.,1.));
#257=DIRECTION('center_axis',(-1.,0.,-1.65812912843936E-17));
#258=DIRECTION('ref_axis',(-1.65812912843936E-17,0.,1.));
#259=DIRECTION('center_axis',(-1.,0.,-1.65812912843936E-17));
#260=DIRECTION('ref_axis',(0.,0.,1.));
#261=DIRECTION('center_axis',(-1.,0.,-1.65812912843936E-17));
#262=DIRECTION('ref_axis',(0.,0.,1.));
#263=DIRECTION('center_axis',(1.,0.,1.65812912843936E-17));
#264=DIRECTION('ref_axis',(0.,0.,1.));
#265=DIRECTION('center_axis',(1.,0.,1.65812912843936E-17));
#266=DIRECTION('ref_axis',(0.,0.,-1.));
#267=DIRECTION('center_axis',(-1.,0.,-1.65812912843936E-17));
#268=DIRECTION('ref_axis',(-1.65812912843936E-17,0.,1.));
#269=DIRECTION('center_axis',(-1.,0.,-1.65812912843936E-17));
#270=DIRECTION('ref_axis',(-1.65812912843936E-17,0.,1.));
#271=DIRECTION('center_axis',(-1.,0.,-1.65812912843936E-17));
#272=DIRECTION('ref_axis',(0.,0.,1.));
#273=DIRECTION('center_axis',(1.,0.,1.65812912843936E-17));
#274=DIRECTION('ref_axis',(0.,0.,-1.));
#275=DIRECTION('center_axis',(-1.,0.,-1.65812912843936E-17));
#276=DIRECTION('ref_axis',(-1.65812912843936E-17,0.,1.));
#277=DIRECTION('center_axis',(-1.,0.,-1.65812912843936E-17));
#278=DIRECTION('ref_axis',(0.,0.,1.));
#279=DIRECTION('center_axis',(-1.,0.,-1.65812912843936E-17));
#280=DIRECTION('ref_axis',(-1.65812912843936E-17,0.,1.));
#281=DIRECTION('center_axis',(-1.,0.,-1.65812912843936E-17));
#282=DIRECTION('ref_axis',(0.,0.,1.));
#283=DIRECTION('center_axis',(-1.,0.,-1.65812912843936E-17));
#284=DIRECTION('ref_axis',(-1.65812912843936E-17,0.,1.));
#285=DIRECTION('center_axis',(-1.,0.,-1.65812912843936E-17));
#286=DIRECTION('ref_axis',(0.,0.,1.));
#287=DIRECTION('center_axis',(-1.,0.,-1.65812912843936E-17));
#288=DIRECTION('ref_axis',(-1.65812912843936E-17,0.,1.));
#289=DIRECTION('center_axis',(1.,0.,1.65812912843936E-17));
#290=DIRECTION('ref_axis',(0.,0.,1.));
#291=DIRECTION('center_axis',(-1.,0.,-1.65812912843936E-17));
#292=DIRECTION('ref_axis',(-1.65812912843936E-17,0.,1.));
#293=DIRECTION('center_axis',(1.,0.,1.65812912843936E-17));
#294=DIRECTION('ref_axis',(0.,0.,1.));
#295=DIRECTION('center_axis',(-1.,0.,-1.65812912843936E-17));
#296=DIRECTION('ref_axis',(-1.65812912843936E-17,0.,1.));
#297=DIRECTION('center_axis',(-1.,0.,-1.65812912843936E-17));
#298=DIRECTION('ref_axis',(0.,0.,1.));
#299=DIRECTION('center_axis',(-1.,0.,-1.65812912843936E-17));
#300=DIRECTION('ref_axis',(0.,0.,1.));
#301=DIRECTION('center_axis',(-1.,0.,-1.65812912843936E-17));
#302=DIRECTION('ref_axis',(-1.65812912843936E-17,0.,1.));
#303=DIRECTION('center_axis',(-1.,0.,-1.65812912843936E-17));
#304=DIRECTION('ref_axis',(0.,0.,1.));
#305=DIRECTION('center_axis',(-1.,0.,-1.65812912843936E-17));
#306=DIRECTION('ref_axis',(-1.65812912843936E-17,0.,1.));
#307=DIRECTION('center_axis',(-1.,0.,-1.65812912843936E-17));
#308=DIRECTION('ref_axis',(0.,0.,1.));
#309=CARTESIAN_POINT('',(0.,0.,0.));
#310=CARTESIAN_POINT('Origin',(-47.,0.,-5.35782974626967E-15));
#311=CARTESIAN_POINT('',(-39.2,2.17374806848655E-14,-177.5));
#312=CARTESIAN_POINT('Origin',(-39.2,0.,-5.35782974626967E-15));
#313=CARTESIAN_POINT('',(-47.,2.17374806848655E-14,-177.5));
#314=CARTESIAN_POINT('Origin',(-47.,0.,-5.35782974626967E-15));
#315=CARTESIAN_POINT('Origin',(-39.2,0.,1.15933055427047E-14));
#316=CARTESIAN_POINT('',(-39.2,-1.10218211923262E-14,-90.));
#317=CARTESIAN_POINT('Origin',(-39.2,0.,-1.42930730871472E-15));
#318=CARTESIAN_POINT('Origin',(47.,0.,-5.35782974626967E-15));
#319=CARTESIAN_POINT('',(39.2,2.17374806848655E-14,-177.5));
#320=CARTESIAN_POINT('Origin',(39.2,0.,-5.35782974626967E-15));
#321=CARTESIAN_POINT('',(47.,2.17374806848655E-14,-177.5));
#322=CARTESIAN_POINT('Origin',(47.,0.,-5.35782974626967E-15));
#323=CARTESIAN_POINT('Origin',(39.2,0.,1.15933055427047E-14));
#324=CARTESIAN_POINT('',(39.2,1.10218211923262E-14,-90.));
#325=CARTESIAN_POINT('Origin',(39.2,0.,-1.29334072018269E-16));
#326=CARTESIAN_POINT('Origin',(32.,0.,90.));
#327=CARTESIAN_POINT('',(32.,0.,90.));
#328=CARTESIAN_POINT('Origin',(32.,0.,-2.48719369265902E-16));
#329=CARTESIAN_POINT('',(32.,0.,52.5));
#330=CARTESIAN_POINT('Origin',(32.,0.,-2.48719369265902E-16));
#331=CARTESIAN_POINT('Origin',(39.5,0.,-1.2435968463295E-16));
#332=CARTESIAN_POINT('Origin',(47.,0.,197.587356891732));
#333=CARTESIAN_POINT('',(47.,0.,197.587356891732));
#334=CARTESIAN_POINT('Origin',(47.,0.,1.23259516440783E-30));
#335=CARTESIAN_POINT('Origin',(38.5,0.,-1.40940975917344E-16));
#336=CARTESIAN_POINT('',(30.,0.,199.825449350718));
#337=CARTESIAN_POINT('Origin',(30.,0.,-2.81881951834689E-16));
#338=CARTESIAN_POINT('Origin',(25.,0.,-3.64788408256657E-16));
#339=CARTESIAN_POINT('',(20.,0.,200.));
#340=CARTESIAN_POINT('Origin',(20.,0.,-4.47694864678625E-16));
#341=CARTESIAN_POINT('Origin',(3.33066907387547E-15,0.,-7.79320690366496E-16));
#342=CARTESIAN_POINT('',(-20.,0.,200.));
#343=CARTESIAN_POINT('Origin',(-20.,0.,-1.11094651605437E-15));
#344=CARTESIAN_POINT('Origin',(-25.,0.,-1.19385297247633E-15));
#345=CARTESIAN_POINT('',(-30.,0.,199.825449350718));
#346=CARTESIAN_POINT('Origin',(-30.,0.,-1.2767594288983E-15));
#347=CARTESIAN_POINT('Origin',(-38.5,0.,-1.41770040481565E-15));
#348=CARTESIAN_POINT('',(-47.,0.,197.587356891732));
#349=CARTESIAN_POINT('Origin',(-47.,0.,-1.55864138073299E-15));
#350=CARTESIAN_POINT('Origin',(-47.,0.,90.));
#351=CARTESIAN_POINT('Origin',(-39.5,0.,-1.43428169610004E-15));
#352=CARTESIAN_POINT('',(-32.,0.,90.));
#353=CARTESIAN_POINT('Origin',(-32.,0.,-1.30992201146709E-15));
#354=CARTESIAN_POINT('Origin',(-32.,0.,52.5));
#355=CARTESIAN_POINT('',(-32.,0.,52.5));
#356=CARTESIAN_POINT('Origin',(-32.,0.,-1.30992201146709E-15));
#357=CARTESIAN_POINT('Origin',(1.11022302462516E-15,0.,-7.79320690366496E-16));
#358=UNCERTAINTY_MEASURE_WITH_UNIT(LENGTH_MEASURE(0.01),#362,
'DISTANCE_ACCURACY_VALUE',
'Maximum model space distance between geometric entities at asserted c
onnectivities');
#359=UNCERTAINTY_MEASURE_WITH_UNIT(LENGTH_MEASURE(1.E-6),#362,
'DISTANCE_ACCURACY_VALUE',
'Maximum model space distance between geometric entities at asserted c
onnectivities');
#360=(
GEOMETRIC_REPRESENTATION_CONTEXT(3)
GLOBAL_UNCERTAINTY_ASSIGNED_CONTEXT((#358))
GLOBAL_UNIT_ASSIGNED_CONTEXT((#362,#365,#363))
REPRESENTATION_CONTEXT('','3D')
);
#361=(
GEOMETRIC_REPRESENTATION_CONTEXT(3)
GLOBAL_UNCERTAINTY_ASSIGNED_CONTEXT((#359))
GLOBAL_UNIT_ASSIGNED_CONTEXT((#362,#365,#363))
REPRESENTATION_CONTEXT('','3D')
);
#362=(
LENGTH_UNIT()
NAMED_UNIT(*)
SI_UNIT(.MILLI.,.METRE.)
);
#363=(
NAMED_UNIT(*)
SI_UNIT($,.STERADIAN.)
SOLID_ANGLE_UNIT()
);
#364=DIMENSIONAL_EXPONENTS(0.,0.,0.,0.,0.,0.,0.);
#365=(
CONVERSION_BASED_UNIT('degree',#367)
NAMED_UNIT(#364)
PLANE_ANGLE_UNIT()
);
#366=(
NAMED_UNIT(*)
PLANE_ANGLE_UNIT()
SI_UNIT($,.RADIAN.)
);
#367=PLANE_ANGLE_MEASURE_WITH_UNIT(PLANE_ANGLE_MEASURE(0.01745329252),#366);
#368=SHAPE_DEFINITION_REPRESENTATION(#369,#370);
#369=PRODUCT_DEFINITION_SHAPE('',$,#372);
#370=SHAPE_REPRESENTATION('',(#210),#360);
#371=PRODUCT_DEFINITION_CONTEXT('part definition',#376,'design');
#372=PRODUCT_DEFINITION('Part1','Part1',#373,#371);
#373=PRODUCT_DEFINITION_FORMATION('',$,#378);
#374=PRODUCT_RELATED_PRODUCT_CATEGORY('Part1','Part1',(#378));
#375=APPLICATION_PROTOCOL_DEFINITION('international standard',
'automotive_design',2009,#376);
#376=APPLICATION_CONTEXT(
'Core Data for Automotive Mechanical Design Process');
#377=PRODUCT_CONTEXT('part definition',#376,'mechanical');
#378=PRODUCT('Part1','Part1',$,(#377));
#379=PRESENTATION_STYLE_ASSIGNMENT((#382));
#380=PRESENTATION_STYLE_ASSIGNMENT((#383));
#381=PRESENTATION_STYLE_ASSIGNMENT((#384));
#382=SURFACE_STYLE_USAGE(.BOTH.,#385);
#383=SURFACE_STYLE_USAGE(.BOTH.,#386);
#384=SURFACE_STYLE_USAGE(.BOTH.,#387);
#385=SURFACE_SIDE_STYLE('',(#388));
#386=SURFACE_SIDE_STYLE('',(#389));
#387=SURFACE_SIDE_STYLE('',(#390));
#388=SURFACE_STYLE_FILL_AREA(#391);
#389=SURFACE_STYLE_FILL_AREA(#392);
#390=SURFACE_STYLE_FILL_AREA(#393);
#391=FILL_AREA_STYLE('',(#394));
#392=FILL_AREA_STYLE('',(#395));
#393=FILL_AREA_STYLE('',(#396));
#394=FILL_AREA_STYLE_COLOUR('',#397);
#395=FILL_AREA_STYLE_COLOUR('',#398);
#396=FILL_AREA_STYLE_COLOUR('',#399);
#397=COLOUR_RGB('',0.745098039215686,0.737254901960784,0.729411764705882);
#398=COLOUR_RGB('',0.698039215686274,0.,0.);
#399=COLOUR_RGB('',0.905882352941176,0.83921568627451,0.674509803921569);
ENDSEC;
END-ISO-10303-21;
