ISO-10303-21;
HEADER;
/* Generated by software containing ST-Developer
 * from STEP Tools, Inc. (www.steptools.com) 
 */

FILE_DESCRIPTION(
/* description */ (''),
/* implementation_level */ '2;1');

FILE_NAME(
/* name */ 
'C:\\Workspace\\Documents\\Products\\Handling\\Rollers\\TRBB\\Customer
 step-files\\TRBB400145.stp',
/* time_stamp */ '2017-10-17T08:13:58+02:00',
/* author */ ('pb'),
/* organization */ (''),
/* preprocessor_version */ 'ST-DEVELOPER v16.5',
/* originating_system */ 'Autodesk Inventor 2017',
/* authorisation */ '');

FILE_SCHEMA (('AUTOMOTIVE_DESIGN { 1 0 10303 214 3 1 1 }'));
ENDSEC;

DATA;
#10=MECHANICAL_DESIGN_GEOMETRIC_PRESENTATION_REPRESENTATION('',(#134,#135,
#136,#137,#138,#139,#140,#141,#142),#277);
#11=SHAPE_REPRESENTATION_RELATIONSHIP('SRR','None',#286,#12);
#12=ADVANCED_BREP_SHAPE_REPRESENTATION('',(#13),#276);
#13=MANIFOLD_SOLID_BREP('Solid2',#155);
#14=CONICAL_SURFACE('',#170,193.200564163501,12.);
#15=CONICAL_SURFACE('',#172,197.795912741144,9.99999999999991);
#16=CONICAL_SURFACE('',#176,197.795912741144,10.);
#17=CONICAL_SURFACE('',#178,193.200564163501,11.9999999999999);
#18=CYLINDRICAL_SURFACE('',#166,90.);
#19=CYLINDRICAL_SURFACE('',#174,200.);
#20=CYLINDRICAL_SURFACE('',#182,90.);
#21=CYLINDRICAL_SURFACE('',#186,52.5);
#22=FACE_BOUND('',#47,.T.);
#23=FACE_BOUND('',#49,.T.);
#24=FACE_BOUND('',#51,.T.);
#25=FACE_BOUND('',#53,.T.);
#26=FACE_BOUND('',#55,.T.);
#27=FACE_BOUND('',#57,.T.);
#28=FACE_BOUND('',#59,.T.);
#29=FACE_BOUND('',#61,.T.);
#30=FACE_BOUND('',#63,.T.);
#31=FACE_BOUND('',#65,.T.);
#32=FACE_BOUND('',#67,.T.);
#33=FACE_BOUND('',#69,.T.);
#34=FACE_OUTER_BOUND('',#46,.T.);
#35=FACE_OUTER_BOUND('',#48,.T.);
#36=FACE_OUTER_BOUND('',#50,.T.);
#37=FACE_OUTER_BOUND('',#52,.T.);
#38=FACE_OUTER_BOUND('',#54,.T.);
#39=FACE_OUTER_BOUND('',#56,.T.);
#40=FACE_OUTER_BOUND('',#58,.T.);
#41=FACE_OUTER_BOUND('',#60,.T.);
#42=FACE_OUTER_BOUND('',#62,.T.);
#43=FACE_OUTER_BOUND('',#64,.T.);
#44=FACE_OUTER_BOUND('',#66,.T.);
#45=FACE_OUTER_BOUND('',#68,.T.);
#46=EDGE_LOOP('',(#106));
#47=EDGE_LOOP('',(#107));
#48=EDGE_LOOP('',(#108));
#49=EDGE_LOOP('',(#109));
#50=EDGE_LOOP('',(#110));
#51=EDGE_LOOP('',(#111));
#52=EDGE_LOOP('',(#112));
#53=EDGE_LOOP('',(#113));
#54=EDGE_LOOP('',(#114));
#55=EDGE_LOOP('',(#115));
#56=EDGE_LOOP('',(#116));
#57=EDGE_LOOP('',(#117));
#58=EDGE_LOOP('',(#118));
#59=EDGE_LOOP('',(#119));
#60=EDGE_LOOP('',(#120));
#61=EDGE_LOOP('',(#121));
#62=EDGE_LOOP('',(#122));
#63=EDGE_LOOP('',(#123));
#64=EDGE_LOOP('',(#124));
#65=EDGE_LOOP('',(#125));
#66=EDGE_LOOP('',(#126));
#67=EDGE_LOOP('',(#127));
#68=EDGE_LOOP('',(#128));
#69=EDGE_LOOP('',(#129));
#70=CIRCLE('',#164,90.);
#71=CIRCLE('',#165,52.5);
#72=CIRCLE('',#167,90.);
#73=CIRCLE('',#169,190.809302844713);
#74=CIRCLE('',#171,195.591825482288);
#75=CIRCLE('',#173,200.);
#76=CIRCLE('',#175,200.);
#77=CIRCLE('',#177,195.591825482288);
#78=CIRCLE('',#179,190.809302844713);
#79=CIRCLE('',#181,89.9999999999999);
#80=CIRCLE('',#183,90.);
#81=CIRCLE('',#185,52.5);
#82=VERTEX_POINT('',#239);
#83=VERTEX_POINT('',#241);
#84=VERTEX_POINT('',#244);
#85=VERTEX_POINT('',#247);
#86=VERTEX_POINT('',#250);
#87=VERTEX_POINT('',#253);
#88=VERTEX_POINT('',#256);
#89=VERTEX_POINT('',#259);
#90=VERTEX_POINT('',#262);
#91=VERTEX_POINT('',#265);
#92=VERTEX_POINT('',#268);
#93=VERTEX_POINT('',#271);
#94=EDGE_CURVE('',#82,#82,#70,.T.);
#95=EDGE_CURVE('',#83,#83,#71,.T.);
#96=EDGE_CURVE('',#84,#84,#72,.T.);
#97=EDGE_CURVE('',#85,#85,#73,.T.);
#98=EDGE_CURVE('',#86,#86,#74,.T.);
#99=EDGE_CURVE('',#87,#87,#75,.T.);
#100=EDGE_CURVE('',#88,#88,#76,.T.);
#101=EDGE_CURVE('',#89,#89,#77,.T.);
#102=EDGE_CURVE('',#90,#90,#78,.T.);
#103=EDGE_CURVE('',#91,#91,#79,.T.);
#104=EDGE_CURVE('',#92,#92,#80,.T.);
#105=EDGE_CURVE('',#93,#93,#81,.T.);
#106=ORIENTED_EDGE('',*,*,#94,.F.);
#107=ORIENTED_EDGE('',*,*,#95,.T.);
#108=ORIENTED_EDGE('',*,*,#94,.T.);
#109=ORIENTED_EDGE('',*,*,#96,.F.);
#110=ORIENTED_EDGE('',*,*,#97,.F.);
#111=ORIENTED_EDGE('',*,*,#96,.T.);
#112=ORIENTED_EDGE('',*,*,#97,.T.);
#113=ORIENTED_EDGE('',*,*,#98,.F.);
#114=ORIENTED_EDGE('',*,*,#98,.T.);
#115=ORIENTED_EDGE('',*,*,#99,.F.);
#116=ORIENTED_EDGE('',*,*,#99,.T.);
#117=ORIENTED_EDGE('',*,*,#100,.F.);
#118=ORIENTED_EDGE('',*,*,#100,.T.);
#119=ORIENTED_EDGE('',*,*,#101,.F.);
#120=ORIENTED_EDGE('',*,*,#101,.T.);
#121=ORIENTED_EDGE('',*,*,#102,.F.);
#122=ORIENTED_EDGE('',*,*,#102,.T.);
#123=ORIENTED_EDGE('',*,*,#103,.F.);
#124=ORIENTED_EDGE('',*,*,#103,.T.);
#125=ORIENTED_EDGE('',*,*,#104,.F.);
#126=ORIENTED_EDGE('',*,*,#104,.T.);
#127=ORIENTED_EDGE('',*,*,#105,.F.);
#128=ORIENTED_EDGE('',*,*,#105,.T.);
#129=ORIENTED_EDGE('',*,*,#95,.F.);
#130=PLANE('',#163);
#131=PLANE('',#168);
#132=PLANE('',#180);
#133=PLANE('',#184);
#134=STYLED_ITEM('',(#296),#143);
#135=STYLED_ITEM('',(#297),#144);
#136=STYLED_ITEM('',(#297),#145);
#137=STYLED_ITEM('',(#296),#148);
#138=STYLED_ITEM('',(#297),#151);
#139=STYLED_ITEM('',(#297),#152);
#140=STYLED_ITEM('',(#296),#153);
#141=STYLED_ITEM('',(#296),#154);
#142=STYLED_ITEM('',(#295),#13);
#143=ADVANCED_FACE('',(#34,#22),#130,.T.);
#144=ADVANCED_FACE('',(#35,#23),#18,.F.);
#145=ADVANCED_FACE('',(#36,#24),#131,.T.);
#146=ADVANCED_FACE('',(#37,#25),#14,.T.);
#147=ADVANCED_FACE('',(#38,#26),#15,.T.);
#148=ADVANCED_FACE('',(#39,#27),#19,.T.);
#149=ADVANCED_FACE('',(#40,#28),#16,.T.);
#150=ADVANCED_FACE('',(#41,#29),#17,.T.);
#151=ADVANCED_FACE('',(#42,#30),#132,.T.);
#152=ADVANCED_FACE('',(#43,#31),#20,.F.);
#153=ADVANCED_FACE('',(#44,#32),#133,.T.);
#154=ADVANCED_FACE('',(#45,#33),#21,.F.);
#155=CLOSED_SHELL('',(#143,#144,#145,#146,#147,#148,#149,#150,#151,#152,
#153,#154));
#156=DATE_TIME_ROLE('creation_date');
#157=APPLIED_DATE_AND_TIME_ASSIGNMENT(#158,#156,(#288));
#158=DATE_AND_TIME(#159,#160);
#159=CALENDAR_DATE(2017,17,10);
#160=LOCAL_TIME(6,4,14.,#161);
#161=COORDINATED_UNIVERSAL_TIME_OFFSET(0,0,.BEHIND.);
#162=AXIS2_PLACEMENT_3D('placement',#237,#187,#188);
#163=AXIS2_PLACEMENT_3D('',#238,#189,#190);
#164=AXIS2_PLACEMENT_3D('',#240,#191,#192);
#165=AXIS2_PLACEMENT_3D('',#242,#193,#194);
#166=AXIS2_PLACEMENT_3D('',#243,#195,#196);
#167=AXIS2_PLACEMENT_3D('',#245,#197,#198);
#168=AXIS2_PLACEMENT_3D('',#246,#199,#200);
#169=AXIS2_PLACEMENT_3D('',#248,#201,#202);
#170=AXIS2_PLACEMENT_3D('',#249,#203,#204);
#171=AXIS2_PLACEMENT_3D('',#251,#205,#206);
#172=AXIS2_PLACEMENT_3D('',#252,#207,#208);
#173=AXIS2_PLACEMENT_3D('',#254,#209,#210);
#174=AXIS2_PLACEMENT_3D('',#255,#211,#212);
#175=AXIS2_PLACEMENT_3D('',#257,#213,#214);
#176=AXIS2_PLACEMENT_3D('',#258,#215,#216);
#177=AXIS2_PLACEMENT_3D('',#260,#217,#218);
#178=AXIS2_PLACEMENT_3D('',#261,#219,#220);
#179=AXIS2_PLACEMENT_3D('',#263,#221,#222);
#180=AXIS2_PLACEMENT_3D('',#264,#223,#224);
#181=AXIS2_PLACEMENT_3D('',#266,#225,#226);
#182=AXIS2_PLACEMENT_3D('',#267,#227,#228);
#183=AXIS2_PLACEMENT_3D('',#269,#229,#230);
#184=AXIS2_PLACEMENT_3D('',#270,#231,#232);
#185=AXIS2_PLACEMENT_3D('',#272,#233,#234);
#186=AXIS2_PLACEMENT_3D('',#273,#235,#236);
#187=DIRECTION('axis',(0.,0.,1.));
#188=DIRECTION('refdir',(1.,0.,0.));
#189=DIRECTION('center_axis',(1.,0.,-3.0626842058625E-16));
#190=DIRECTION('ref_axis',(0.,0.,-1.));
#191=DIRECTION('center_axis',(-1.,0.,3.0626842058625E-16));
#192=DIRECTION('ref_axis',(3.0626842058625E-16,0.,1.));
#193=DIRECTION('center_axis',(-1.,0.,3.0626842058625E-16));
#194=DIRECTION('ref_axis',(3.0626842058625E-16,0.,1.));
#195=DIRECTION('center_axis',(-1.,0.,3.0626842058625E-16));
#196=DIRECTION('ref_axis',(3.38353683695286E-16,0.,1.));
#197=DIRECTION('center_axis',(-1.,0.,3.0626842058625E-16));
#198=DIRECTION('ref_axis',(3.0626842058625E-16,0.,1.));
#199=DIRECTION('center_axis',(1.,0.,-3.0626842058625E-16));
#200=DIRECTION('ref_axis',(0.,0.,-1.));
#201=DIRECTION('center_axis',(-1.,0.,3.0626842058625E-16));
#202=DIRECTION('ref_axis',(3.0626842058625E-16,0.,1.));
#203=DIRECTION('center_axis',(-1.,0.,3.0626842058625E-16));
#204=DIRECTION('ref_axis',(3.38353683695286E-16,0.,1.));
#205=DIRECTION('center_axis',(-1.,0.,3.0626842058625E-16));
#206=DIRECTION('ref_axis',(3.0626842058625E-16,0.,1.));
#207=DIRECTION('center_axis',(-1.,0.,3.0626842058625E-16));
#208=DIRECTION('ref_axis',(3.38353683695286E-16,0.,1.));
#209=DIRECTION('center_axis',(-1.,0.,3.0626842058625E-16));
#210=DIRECTION('ref_axis',(3.0626842058625E-16,0.,1.));
#211=DIRECTION('center_axis',(-1.,0.,3.0626842058625E-16));
#212=DIRECTION('ref_axis',(3.38353683695286E-16,0.,1.));
#213=DIRECTION('center_axis',(-1.,0.,3.0626842058625E-16));
#214=DIRECTION('ref_axis',(3.0626842058625E-16,0.,1.));
#215=DIRECTION('center_axis',(1.,0.,-3.0626842058625E-16));
#216=DIRECTION('ref_axis',(3.38353683695286E-16,0.,1.));
#217=DIRECTION('center_axis',(-1.,0.,3.0626842058625E-16));
#218=DIRECTION('ref_axis',(3.0626842058625E-16,0.,1.));
#219=DIRECTION('center_axis',(1.,0.,-3.0626842058625E-16));
#220=DIRECTION('ref_axis',(3.38353683695286E-16,0.,1.));
#221=DIRECTION('center_axis',(-1.,0.,3.0626842058625E-16));
#222=DIRECTION('ref_axis',(3.0626842058625E-16,0.,1.));
#223=DIRECTION('center_axis',(-1.,0.,3.0626842058625E-16));
#224=DIRECTION('ref_axis',(0.,0.,1.));
#225=DIRECTION('center_axis',(-1.,0.,3.0626842058625E-16));
#226=DIRECTION('ref_axis',(3.0626842058625E-16,0.,1.));
#227=DIRECTION('center_axis',(-1.,0.,3.0626842058625E-16));
#228=DIRECTION('ref_axis',(3.38353683695286E-16,0.,1.));
#229=DIRECTION('center_axis',(-1.,0.,3.0626842058625E-16));
#230=DIRECTION('ref_axis',(3.0626842058625E-16,0.,1.));
#231=DIRECTION('center_axis',(-1.,0.,3.0626842058625E-16));
#232=DIRECTION('ref_axis',(3.5527136788005E-16,0.,1.));
#233=DIRECTION('center_axis',(-1.,0.,3.0626842058625E-16));
#234=DIRECTION('ref_axis',(3.0626842058625E-16,0.,1.));
#235=DIRECTION('center_axis',(-1.,0.,3.0626842058625E-16));
#236=DIRECTION('ref_axis',(3.38353683695286E-16,0.,1.));
#237=CARTESIAN_POINT('',(0.,0.,0.));
#238=CARTESIAN_POINT('Origin',(32.,0.,90.));
#239=CARTESIAN_POINT('',(32.,0.,90.));
#240=CARTESIAN_POINT('Origin',(32.,0.,3.52208683674188E-15));
#241=CARTESIAN_POINT('',(32.,0.,52.5));
#242=CARTESIAN_POINT('Origin',(32.,0.,3.52208683674188E-15));
#243=CARTESIAN_POINT('Origin',(52.25,0.,-2.67984868012969E-15));
#244=CARTESIAN_POINT('',(72.5,0.,90.));
#245=CARTESIAN_POINT('Origin',(72.5,0.,-8.88178419700125E-15));
#246=CARTESIAN_POINT('Origin',(72.5,0.,190.809302844713));
#247=CARTESIAN_POINT('',(72.5,0.,190.809302844713));
#248=CARTESIAN_POINT('Origin',(72.4999999999999,0.,-8.88178419700124E-15));
#249=CARTESIAN_POINT('Origin',(61.25,0.,-5.43626446540593E-15));
#250=CARTESIAN_POINT('',(50.,0.,195.591825482288));
#251=CARTESIAN_POINT('Origin',(50.,0.,-1.99074473381062E-15));
#252=CARTESIAN_POINT('Origin',(37.5,0.,1.83761052351751E-15));
#253=CARTESIAN_POINT('',(25.,0.,200.));
#254=CARTESIAN_POINT('Origin',(24.9999999999999,0.,5.66596578084564E-15));
#255=CARTESIAN_POINT('Origin',(-6.10622663543836E-14,0.,1.33226762955019E-14));
#256=CARTESIAN_POINT('',(-25.,0.,200.));
#257=CARTESIAN_POINT('Origin',(-25.0000000000001,0.,2.09793868101582E-14));
#258=CARTESIAN_POINT('Origin',(-37.5000000000001,0.,2.48077420674863E-14));
#259=CARTESIAN_POINT('',(-50.,0.,195.591825482288));
#260=CARTESIAN_POINT('Origin',(-50.0000000000001,0.,2.86360973248144E-14));
#261=CARTESIAN_POINT('Origin',(-61.2500000000001,0.,3.20816170564097E-14));
#262=CARTESIAN_POINT('',(-72.5,0.,190.809302844713));
#263=CARTESIAN_POINT('Origin',(-72.5000000000001,0.,3.5527136788005E-14));
#264=CARTESIAN_POINT('Origin',(-72.5,0.,90.));
#265=CARTESIAN_POINT('',(-72.5,0.,90.));
#266=CARTESIAN_POINT('Origin',(-72.5,0.,3.5527136788005E-14));
#267=CARTESIAN_POINT('Origin',(-52.25,0.,2.93252012711335E-14));
#268=CARTESIAN_POINT('',(-32.,0.,90.));
#269=CARTESIAN_POINT('Origin',(-32.,0.,2.31232657542619E-14));
#270=CARTESIAN_POINT('Origin',(-32.,0.,52.5));
#271=CARTESIAN_POINT('',(-32.,0.,52.5));
#272=CARTESIAN_POINT('Origin',(-32.,0.,2.31232657542619E-14));
#273=CARTESIAN_POINT('Origin',(-1.60982338570648E-14,0.,1.33226762955019E-14));
#274=UNCERTAINTY_MEASURE_WITH_UNIT(LENGTH_MEASURE(0.01),#278,
'DISTANCE_ACCURACY_VALUE',
'Maximum model space distance between geometric entities at asserted c
onnectivities');
#275=UNCERTAINTY_MEASURE_WITH_UNIT(LENGTH_MEASURE(1.E-6),#278,
'DISTANCE_ACCURACY_VALUE',
'Maximum model space distance between geometric entities at asserted c
onnectivities');
#276=(
GEOMETRIC_REPRESENTATION_CONTEXT(3)
GLOBAL_UNCERTAINTY_ASSIGNED_CONTEXT((#274))
GLOBAL_UNIT_ASSIGNED_CONTEXT((#278,#281,#279))
REPRESENTATION_CONTEXT('','3D')
);
#277=(
GEOMETRIC_REPRESENTATION_CONTEXT(3)
GLOBAL_UNCERTAINTY_ASSIGNED_CONTEXT((#275))
GLOBAL_UNIT_ASSIGNED_CONTEXT((#278,#281,#279))
REPRESENTATION_CONTEXT('','3D')
);
#278=(
LENGTH_UNIT()
NAMED_UNIT(*)
SI_UNIT(.MILLI.,.METRE.)
);
#279=(
NAMED_UNIT(*)
SI_UNIT($,.STERADIAN.)
SOLID_ANGLE_UNIT()
);
#280=DIMENSIONAL_EXPONENTS(0.,0.,0.,0.,0.,0.,0.);
#281=(
CONVERSION_BASED_UNIT('degree',#283)
NAMED_UNIT(#280)
PLANE_ANGLE_UNIT()
);
#282=(
NAMED_UNIT(*)
PLANE_ANGLE_UNIT()
SI_UNIT($,.RADIAN.)
);
#283=PLANE_ANGLE_MEASURE_WITH_UNIT(PLANE_ANGLE_MEASURE(0.01745329252),#282);
#284=SHAPE_DEFINITION_REPRESENTATION(#285,#286);
#285=PRODUCT_DEFINITION_SHAPE('',$,#288);
#286=SHAPE_REPRESENTATION('',(#162),#276);
#287=PRODUCT_DEFINITION_CONTEXT('part definition',#292,'design');
#288=PRODUCT_DEFINITION('Part1','Part1',#289,#287);
#289=PRODUCT_DEFINITION_FORMATION('',$,#294);
#290=PRODUCT_RELATED_PRODUCT_CATEGORY('Part1','Part1',(#294));
#291=APPLICATION_PROTOCOL_DEFINITION('international standard',
'automotive_design',2009,#292);
#292=APPLICATION_CONTEXT(
'Core Data for Automotive Mechanical Design Process');
#293=PRODUCT_CONTEXT('part definition',#292,'mechanical');
#294=PRODUCT('Part1','Part1',$,(#293));
#295=PRESENTATION_STYLE_ASSIGNMENT((#298));
#296=PRESENTATION_STYLE_ASSIGNMENT((#299));
#297=PRESENTATION_STYLE_ASSIGNMENT((#300));
#298=SURFACE_STYLE_USAGE(.BOTH.,#301);
#299=SURFACE_STYLE_USAGE(.BOTH.,#302);
#300=SURFACE_STYLE_USAGE(.BOTH.,#303);
#301=SURFACE_SIDE_STYLE('',(#304));
#302=SURFACE_SIDE_STYLE('',(#305));
#303=SURFACE_SIDE_STYLE('',(#306));
#304=SURFACE_STYLE_FILL_AREA(#307);
#305=SURFACE_STYLE_FILL_AREA(#308);
#306=SURFACE_STYLE_FILL_AREA(#309);
#307=FILL_AREA_STYLE('',(#310));
#308=FILL_AREA_STYLE('',(#311));
#309=FILL_AREA_STYLE('',(#312));
#310=FILL_AREA_STYLE_COLOUR('',#313);
#311=FILL_AREA_STYLE_COLOUR('',#314);
#312=FILL_AREA_STYLE_COLOUR('',#315);
#313=COLOUR_RGB('',0.745098039215686,0.737254901960784,0.729411764705882);
#314=COLOUR_RGB('',0.905882352941176,0.83921568627451,0.674509803921569);
#315=COLOUR_RGB('',0.698039215686274,0.,0.);
ENDSEC;
END-ISO-10303-21;
