ISO-10303-21;
HEADER;
/* Generated by software containing ST-Developer
 * from STEP Tools, Inc. (www.steptools.com) 
 */

FILE_DESCRIPTION(
/* description */ (''),
/* implementation_level */ '2;1');

FILE_NAME(
/* name */ 
'C:\\Workspace\\Documents\\Products\\Handling\\Sheet sep\\NdFeB\\TRSP3
41600 - Customer.stp',
/* time_stamp */ '2014-06-16T13:14:57+02:00',
/* author */ ('bs'),
/* organization */ (''),
/* preprocessor_version */ 'ST-DEVELOPER v15.2',
/* originating_system */ 'Autodesk Inventor 2014',
/* authorisation */ '');

FILE_SCHEMA (('AUTOMOTIVE_DESIGN { 1 0 10303 214 3 1 1 }'));
ENDSEC;

DATA;
#10=SHAPE_REPRESENTATION_RELATIONSHIP('SRR','None',#413,#11);
#11=ADVANCED_BREP_SHAPE_REPRESENTATION($,(#231),#404);
#12=TOROIDAL_SURFACE($,#241,5.9715728752538,2.);
#13=CYLINDRICAL_SURFACE($,#239,15.95);
#14=CYLINDRICAL_SURFACE($,#247,16.8);
#15=CYLINDRICAL_SURFACE($,#250,16.);
#16=CYLINDRICAL_SURFACE($,#252,16.8);
#17=CYLINDRICAL_SURFACE($,#258,15.95);
#18=CYLINDRICAL_SURFACE($,#267,16.8);
#19=CYLINDRICAL_SURFACE($,#268,4.188);
#20=FACE_OUTER_BOUND($,#60,.T.);
#21=FACE_OUTER_BOUND($,#62,.T.);
#22=FACE_OUTER_BOUND($,#64,.T.);
#23=FACE_OUTER_BOUND($,#65,.T.);
#24=FACE_OUTER_BOUND($,#67,.T.);
#25=FACE_OUTER_BOUND($,#68,.T.);
#26=FACE_OUTER_BOUND($,#70,.T.);
#27=FACE_OUTER_BOUND($,#72,.T.);
#28=FACE_OUTER_BOUND($,#74,.T.);
#29=FACE_OUTER_BOUND($,#76,.T.);
#30=FACE_OUTER_BOUND($,#78,.T.);
#31=FACE_OUTER_BOUND($,#82,.T.);
#32=FACE_OUTER_BOUND($,#86,.T.);
#33=FACE_OUTER_BOUND($,#88,.T.);
#34=FACE_OUTER_BOUND($,#90,.T.);
#35=CONICAL_SURFACE($,#236,15.7,45.);
#36=CONICAL_SURFACE($,#245,11.8,45.);
#37=CONICAL_SURFACE($,#255,15.45,45.);
#38=CONICAL_SURFACE($,#262,16.3,44.9999999999999);
#39=FACE_BOUND($,#58,.T.);
#40=FACE_BOUND($,#59,.T.);
#41=FACE_BOUND($,#61,.T.);
#42=FACE_BOUND($,#63,.T.);
#43=FACE_BOUND($,#66,.T.);
#44=FACE_BOUND($,#69,.T.);
#45=FACE_BOUND($,#71,.T.);
#46=FACE_BOUND($,#73,.T.);
#47=FACE_BOUND($,#75,.T.);
#48=FACE_BOUND($,#77,.T.);
#49=FACE_BOUND($,#79,.T.);
#50=FACE_BOUND($,#80,.T.);
#51=FACE_BOUND($,#81,.T.);
#52=FACE_BOUND($,#83,.T.);
#53=FACE_BOUND($,#84,.T.);
#54=FACE_BOUND($,#85,.T.);
#55=FACE_BOUND($,#87,.T.);
#56=FACE_BOUND($,#89,.T.);
#57=FACE_BOUND($,#91,.T.);
#58=EDGE_LOOP($,(#149));
#59=EDGE_LOOP($,(#150));
#60=EDGE_LOOP($,(#151));
#61=EDGE_LOOP($,(#152));
#62=EDGE_LOOP($,(#153));
#63=EDGE_LOOP($,(#154));
#64=EDGE_LOOP($,(#155));
#65=EDGE_LOOP($,(#156));
#66=EDGE_LOOP($,(#157));
#67=EDGE_LOOP($,(#158));
#68=EDGE_LOOP($,(#159));
#69=EDGE_LOOP($,(#160));
#70=EDGE_LOOP($,(#161));
#71=EDGE_LOOP($,(#162,#163));
#72=EDGE_LOOP($,(#164));
#73=EDGE_LOOP($,(#165));
#74=EDGE_LOOP($,(#166,#167));
#75=EDGE_LOOP($,(#168,#169));
#76=EDGE_LOOP($,(#170));
#77=EDGE_LOOP($,(#171));
#78=EDGE_LOOP($,(#172));
#79=EDGE_LOOP($,(#173));
#80=EDGE_LOOP($,(#174));
#81=EDGE_LOOP($,(#175));
#82=EDGE_LOOP($,(#176));
#83=EDGE_LOOP($,(#177));
#84=EDGE_LOOP($,(#178));
#85=EDGE_LOOP($,(#179));
#86=EDGE_LOOP($,(#180,#181));
#87=EDGE_LOOP($,(#182));
#88=EDGE_LOOP($,(#183));
#89=EDGE_LOOP($,(#184));
#90=EDGE_LOOP($,(#185));
#91=EDGE_LOOP($,(#186));
#92=CIRCLE($,#234,15.95);
#93=CIRCLE($,#235,16.);
#94=CIRCLE($,#237,15.95);
#95=CIRCLE($,#238,15.45);
#96=CIRCLE($,#242,5.9715728752538);
#97=CIRCLE($,#243,7.3857864376269);
#98=CIRCLE($,#246,16.8);
#99=CIRCLE($,#248,16.8);
#100=CIRCLE($,#249,16.8);
#101=CIRCLE($,#251,16.);
#102=CIRCLE($,#253,16.8);
#103=CIRCLE($,#254,16.8);
#104=CIRCLE($,#256,15.95);
#105=CIRCLE($,#257,14.95);
#106=CIRCLE($,#259,15.95);
#107=CIRCLE($,#261,4.188);
#108=CIRCLE($,#263,15.8);
#109=CIRCLE($,#264,16.8);
#110=CIRCLE($,#266,4.188);
#111=VERTEX_POINT($,#348);
#112=VERTEX_POINT($,#350);
#113=VERTEX_POINT($,#353);
#114=VERTEX_POINT($,#355);
#115=VERTEX_POINT($,#360);
#116=VERTEX_POINT($,#362);
#117=VERTEX_POINT($,#366);
#118=VERTEX_POINT($,#369);
#119=VERTEX_POINT($,#370);
#120=VERTEX_POINT($,#374);
#121=VERTEX_POINT($,#377);
#122=VERTEX_POINT($,#378);
#123=VERTEX_POINT($,#382);
#124=VERTEX_POINT($,#384);
#125=VERTEX_POINT($,#387);
#126=VERTEX_POINT($,#390);
#127=VERTEX_POINT($,#393);
#128=VERTEX_POINT($,#395);
#129=VERTEX_POINT($,#398);
#130=EDGE_CURVE($,#111,#111,#92,.T.);
#131=EDGE_CURVE($,#112,#112,#93,.T.);
#132=EDGE_CURVE($,#113,#113,#94,.T.);
#133=EDGE_CURVE($,#114,#114,#95,.T.);
#134=EDGE_CURVE($,#115,#115,#96,.T.);
#135=EDGE_CURVE($,#116,#116,#97,.T.);
#136=EDGE_CURVE($,#117,#117,#98,.T.);
#137=EDGE_CURVE($,#118,#119,#99,.T.);
#138=EDGE_CURVE($,#119,#118,#100,.T.);
#139=EDGE_CURVE($,#120,#120,#101,.T.);
#140=EDGE_CURVE($,#121,#122,#102,.T.);
#141=EDGE_CURVE($,#122,#121,#103,.T.);
#142=EDGE_CURVE($,#123,#123,#104,.T.);
#143=EDGE_CURVE($,#124,#124,#105,.T.);
#144=EDGE_CURVE($,#125,#125,#106,.T.);
#145=EDGE_CURVE($,#126,#126,#107,.T.);
#146=EDGE_CURVE($,#127,#127,#108,.T.);
#147=EDGE_CURVE($,#128,#128,#109,.T.);
#148=EDGE_CURVE($,#129,#129,#110,.T.);
#149=ORIENTED_EDGE($,*,*,#130,.F.);
#150=ORIENTED_EDGE($,*,*,#131,.F.);
#151=ORIENTED_EDGE($,*,*,#132,.T.);
#152=ORIENTED_EDGE($,*,*,#133,.T.);
#153=ORIENTED_EDGE($,*,*,#130,.T.);
#154=ORIENTED_EDGE($,*,*,#132,.F.);
#155=ORIENTED_EDGE($,*,*,#133,.F.);
#156=ORIENTED_EDGE($,*,*,#134,.T.);
#157=ORIENTED_EDGE($,*,*,#135,.T.);
#158=ORIENTED_EDGE($,*,*,#134,.F.);
#159=ORIENTED_EDGE($,*,*,#136,.F.);
#160=ORIENTED_EDGE($,*,*,#135,.F.);
#161=ORIENTED_EDGE($,*,*,#136,.T.);
#162=ORIENTED_EDGE($,*,*,#137,.F.);
#163=ORIENTED_EDGE($,*,*,#138,.F.);
#164=ORIENTED_EDGE($,*,*,#131,.T.);
#165=ORIENTED_EDGE($,*,*,#139,.F.);
#166=ORIENTED_EDGE($,*,*,#138,.T.);
#167=ORIENTED_EDGE($,*,*,#137,.T.);
#168=ORIENTED_EDGE($,*,*,#140,.T.);
#169=ORIENTED_EDGE($,*,*,#141,.T.);
#170=ORIENTED_EDGE($,*,*,#142,.T.);
#171=ORIENTED_EDGE($,*,*,#143,.T.);
#172=ORIENTED_EDGE($,*,*,#144,.T.);
#173=ORIENTED_EDGE($,*,*,#142,.F.);
#174=ORIENTED_EDGE($,*,*,#145,.T.);
#175=ORIENTED_EDGE($,*,*,#143,.F.);
#176=ORIENTED_EDGE($,*,*,#146,.T.);
#177=ORIENTED_EDGE($,*,*,#147,.T.);
#178=ORIENTED_EDGE($,*,*,#148,.T.);
#179=ORIENTED_EDGE($,*,*,#146,.F.);
#180=ORIENTED_EDGE($,*,*,#140,.F.);
#181=ORIENTED_EDGE($,*,*,#141,.F.);
#182=ORIENTED_EDGE($,*,*,#147,.F.);
#183=ORIENTED_EDGE($,*,*,#145,.F.);
#184=ORIENTED_EDGE($,*,*,#148,.F.);
#185=ORIENTED_EDGE($,*,*,#139,.T.);
#186=ORIENTED_EDGE($,*,*,#144,.F.);
#187=PLANE($,#233);
#188=PLANE($,#240);
#189=PLANE($,#244);
#190=PLANE($,#260);
#191=PLANE($,#265);
#192=PLANE($,#269);
#193=STYLED_ITEM($,(#421),#212);
#194=STYLED_ITEM($,(#421),#213);
#195=STYLED_ITEM($,(#421),#214);
#196=STYLED_ITEM($,(#421),#215);
#197=STYLED_ITEM($,(#421),#216);
#198=STYLED_ITEM($,(#421),#217);
#199=STYLED_ITEM($,(#421),#218);
#200=STYLED_ITEM($,(#421),#219);
#201=STYLED_ITEM($,(#422),#220);
#202=STYLED_ITEM($,(#422),#221);
#203=STYLED_ITEM($,(#421),#222);
#204=STYLED_ITEM($,(#421),#223);
#205=STYLED_ITEM($,(#421),#224);
#206=STYLED_ITEM($,(#421),#225);
#207=STYLED_ITEM($,(#421),#226);
#208=STYLED_ITEM($,(#421),#227);
#209=STYLED_ITEM($,(#421),#228);
#210=STYLED_ITEM($,(#421),#229);
#211=STYLED_ITEM($,(#421),#231);
#212=ADVANCED_FACE($,(#39,#40),#187,.T.);
#213=ADVANCED_FACE($,(#20,#41),#35,.T.);
#214=ADVANCED_FACE($,(#21,#42),#13,.T.);
#215=ADVANCED_FACE($,(#22),#188,.T.);
#216=ADVANCED_FACE($,(#23,#43),#12,.T.);
#217=ADVANCED_FACE($,(#24),#189,.T.);
#218=ADVANCED_FACE($,(#25,#44),#36,.T.);
#219=ADVANCED_FACE($,(#26,#45),#14,.T.);
#220=ADVANCED_FACE($,(#27,#46),#15,.F.);
#221=ADVANCED_FACE($,(#28,#47),#16,.T.);
#222=ADVANCED_FACE($,(#29,#48),#37,.T.);
#223=ADVANCED_FACE($,(#30,#49),#17,.T.);
#224=ADVANCED_FACE($,(#50,#51),#190,.T.);
#225=ADVANCED_FACE($,(#31,#52),#38,.T.);
#226=ADVANCED_FACE($,(#53,#54),#191,.T.);
#227=ADVANCED_FACE($,(#32,#55),#18,.T.);
#228=ADVANCED_FACE($,(#33,#56),#19,.F.);
#229=ADVANCED_FACE($,(#34,#57),#192,.T.);
#230=CLOSED_SHELL($,(#212,#213,#214,#215,#216,#217,#218,#219,#220,#221,
#222,#223,#224,#225,#226,#227,#228,#229));
#231=MANIFOLD_SOLID_BREP('Solid2',#230);
#232=AXIS2_PLACEMENT_3D('placement',#346,#270,#271);
#233=AXIS2_PLACEMENT_3D($,#347,#272,#273);
#234=AXIS2_PLACEMENT_3D($,#349,#274,#275);
#235=AXIS2_PLACEMENT_3D($,#351,#276,#277);
#236=AXIS2_PLACEMENT_3D($,#352,#278,#279);
#237=AXIS2_PLACEMENT_3D($,#354,#280,#281);
#238=AXIS2_PLACEMENT_3D($,#356,#282,#283);
#239=AXIS2_PLACEMENT_3D($,#357,#284,#285);
#240=AXIS2_PLACEMENT_3D($,#358,#286,#287);
#241=AXIS2_PLACEMENT_3D($,#359,#288,#289);
#242=AXIS2_PLACEMENT_3D($,#361,#290,#291);
#243=AXIS2_PLACEMENT_3D($,#363,#292,#293);
#244=AXIS2_PLACEMENT_3D($,#364,#294,#295);
#245=AXIS2_PLACEMENT_3D($,#365,#296,#297);
#246=AXIS2_PLACEMENT_3D($,#367,#298,#299);
#247=AXIS2_PLACEMENT_3D($,#368,#300,#301);
#248=AXIS2_PLACEMENT_3D($,#371,#302,#303);
#249=AXIS2_PLACEMENT_3D($,#372,#304,#305);
#250=AXIS2_PLACEMENT_3D($,#373,#306,#307);
#251=AXIS2_PLACEMENT_3D($,#375,#308,#309);
#252=AXIS2_PLACEMENT_3D($,#376,#310,#311);
#253=AXIS2_PLACEMENT_3D($,#379,#312,#313);
#254=AXIS2_PLACEMENT_3D($,#380,#314,#315);
#255=AXIS2_PLACEMENT_3D($,#381,#316,#317);
#256=AXIS2_PLACEMENT_3D($,#383,#318,#319);
#257=AXIS2_PLACEMENT_3D($,#385,#320,#321);
#258=AXIS2_PLACEMENT_3D($,#386,#322,#323);
#259=AXIS2_PLACEMENT_3D($,#388,#324,#325);
#260=AXIS2_PLACEMENT_3D($,#389,#326,#327);
#261=AXIS2_PLACEMENT_3D($,#391,#328,#329);
#262=AXIS2_PLACEMENT_3D($,#392,#330,#331);
#263=AXIS2_PLACEMENT_3D($,#394,#332,#333);
#264=AXIS2_PLACEMENT_3D($,#396,#334,#335);
#265=AXIS2_PLACEMENT_3D($,#397,#336,#337);
#266=AXIS2_PLACEMENT_3D($,#399,#338,#339);
#267=AXIS2_PLACEMENT_3D($,#400,#340,#341);
#268=AXIS2_PLACEMENT_3D($,#401,#342,#343);
#269=AXIS2_PLACEMENT_3D($,#402,#344,#345);
#270=DIRECTION('axis',(0.,0.,1.));
#271=DIRECTION('refdir',(1.,0.,0.));
#272=DIRECTION('center_axis',(-1.,-2.41033467898585E-016,2.05245702474118E-130));
#273=DIRECTION('ref_axis',(0.,0.,-1.));
#274=DIRECTION('center_axis',(-1.,-2.41033467898585E-016,2.05245702474118E-130));
#275=DIRECTION('ref_axis',(-2.05245702474118E-130,-4.9471083438618E-146,
-1.));
#276=DIRECTION('center_axis',(1.,2.41033467898585E-016,1.73090475954056E-031));
#277=DIRECTION('ref_axis',(1.32950340089119E-031,1.66533453693768E-016,
-1.));
#278=DIRECTION('center_axis',(1.,2.41033467898585E-016,-2.05245702474118E-130));
#279=DIRECTION('ref_axis',(-2.41033467898585E-016,1.,6.07163664924208E-161));
#280=DIRECTION('center_axis',(-1.,-2.41033467898585E-016,2.05245702474118E-130));
#281=DIRECTION('ref_axis',(-2.41033467898585E-016,1.,6.07163664924208E-161));
#282=DIRECTION('center_axis',(1.,2.41033467898585E-016,-2.05245702474118E-130));
#283=DIRECTION('ref_axis',(-2.41033467898585E-016,1.,6.07163664924208E-161));
#284=DIRECTION('center_axis',(-1.,-2.41033467898585E-016,2.05245702474118E-130));
#285=DIRECTION('ref_axis',(2.41033467898585E-016,-1.,-6.07163664924208E-161));
#286=DIRECTION('center_axis',(-1.,-2.41033467898585E-016,2.05245702474118E-130));
#287=DIRECTION('ref_axis',(0.,0.,-1.));
#288=DIRECTION('center_axis',(-1.,-2.41033467898585E-016,2.05245702474118E-130));
#289=DIRECTION('ref_axis',(0.,0.,-1.));
#290=DIRECTION('center_axis',(-1.,-2.41033467898585E-016,2.05245702474118E-130));
#291=DIRECTION('ref_axis',(-2.41033467898585E-016,1.,1.83697019872103E-016));
#292=DIRECTION('center_axis',(1.,2.41033467898585E-016,-2.05245702474118E-130));
#293=DIRECTION('ref_axis',(-2.41033467898585E-016,1.,3.06161699786838E-017));
#294=DIRECTION('center_axis',(1.,2.41033467898585E-016,-2.05245702474118E-130));
#295=DIRECTION('ref_axis',(0.,0.,1.));
#296=DIRECTION('center_axis',(-1.,-2.41033467898585E-016,2.05245702474118E-130));
#297=DIRECTION('ref_axis',(2.41033467898585E-016,-1.,-6.07163664924208E-161));
#298=DIRECTION('center_axis',(-1.,-2.41033467898585E-016,2.05245702474118E-130));
#299=DIRECTION('ref_axis',(-2.05245702474118E-130,-4.9471083438618E-146,
-1.));
#300=DIRECTION('center_axis',(-1.,-2.41033467898585E-016,2.05245702474118E-130));
#301=DIRECTION('ref_axis',(2.41033467898585E-016,-1.,-6.07163664924208E-161));
#302=DIRECTION('center_axis',(-1.,-2.41033467898585E-016,-1.73090475954056E-031));
#303=DIRECTION('ref_axis',(1.32950340089119E-031,1.66533453693768E-016,
-1.));
#304=DIRECTION('center_axis',(-1.,-2.41033467898585E-016,-1.73090475954056E-031));
#305=DIRECTION('ref_axis',(1.32950340089119E-031,1.66533453693768E-016,
-1.));
#306=DIRECTION('center_axis',(1.,2.41033467898585E-016,1.73090475954056E-031));
#307=DIRECTION('ref_axis',(1.32950340089119E-031,1.66533453693768E-016,
-1.));
#308=DIRECTION('center_axis',(1.,1.83697019872103E-016,0.));
#309=DIRECTION('ref_axis',(1.32950340089119E-031,1.66533453693768E-016,
-1.));
#310=DIRECTION('center_axis',(1.,2.41033467898585E-016,1.73090475954056E-031));
#311=DIRECTION('ref_axis',(1.32950340089119E-031,1.66533453693768E-016,
-1.));
#312=DIRECTION('center_axis',(1.,1.83697019872103E-016,0.));
#313=DIRECTION('ref_axis',(0.,0.,-1.));
#314=DIRECTION('center_axis',(1.,1.83697019872103E-016,0.));
#315=DIRECTION('ref_axis',(0.,0.,-1.));
#316=DIRECTION('center_axis',(-1.,-1.83697019872103E-016,0.));
#317=DIRECTION('ref_axis',(8.88760662488006E-017,-1.,0.));
#318=DIRECTION('center_axis',(1.,1.83697019872103E-016,0.));
#319=DIRECTION('ref_axis',(0.,-1.,0.));
#320=DIRECTION('center_axis',(-1.,-1.83697019872103E-016,0.));
#321=DIRECTION('ref_axis',(1.83697019872103E-016,-1.,0.));
#322=DIRECTION('center_axis',(1.,1.83697019872103E-016,0.));
#323=DIRECTION('ref_axis',(0.,1.,0.));
#324=DIRECTION('center_axis',(1.,1.83697019872103E-016,0.));
#325=DIRECTION('ref_axis',(0.,0.,-1.));
#326=DIRECTION('center_axis',(1.,1.83697019872103E-016,0.));
#327=DIRECTION('ref_axis',(0.,0.,-1.));
#328=DIRECTION('center_axis',(-1.,-1.83697019872103E-016,0.));
#329=DIRECTION('ref_axis',(1.83697019872103E-016,-1.,0.));
#330=DIRECTION('center_axis',(1.,1.83697019872103E-016,0.));
#331=DIRECTION('ref_axis',(8.90310709809579E-017,-1.,0.));
#332=DIRECTION('center_axis',(1.,1.83697019872103E-016,0.));
#333=DIRECTION('ref_axis',(1.83697019872103E-016,-1.,0.));
#334=DIRECTION('center_axis',(-1.,-1.83697019872103E-016,0.));
#335=DIRECTION('ref_axis',(0.,-1.,0.));
#336=DIRECTION('center_axis',(-1.,-1.83697019872103E-016,0.));
#337=DIRECTION('ref_axis',(0.,0.,1.));
#338=DIRECTION('center_axis',(1.,1.83697019872103E-016,0.));
#339=DIRECTION('ref_axis',(1.83697019872103E-016,-1.,0.));
#340=DIRECTION('center_axis',(1.,1.83697019872103E-016,0.));
#341=DIRECTION('ref_axis',(0.,1.,0.));
#342=DIRECTION('center_axis',(-1.,-1.83697019872103E-016,0.));
#343=DIRECTION('ref_axis',(1.83697019872103E-016,-1.,0.));
#344=DIRECTION('center_axis',(1.,1.83697019872103E-016,0.));
#345=DIRECTION('ref_axis',(0.,0.,-1.));
#346=CARTESIAN_POINT('',(0.,0.,0.));
#347=CARTESIAN_POINT('Origin',(77.7057670849131,24.1059602807547,-4.10491404948238E-130));
#348=CARTESIAN_POINT('',(77.7057670849131,24.1059602807547,-4.10491404948238E-130));
#349=CARTESIAN_POINT('Origin',(77.7057670849131,40.0559602807547,-4.10491404948238E-130));
#350=CARTESIAN_POINT('',(77.7057670849087,40.0559602807547,16.));
#351=CARTESIAN_POINT('Origin',(77.7057670849087,40.0559602807547,2.35403047297516E-029));
#352=CARTESIAN_POINT('Origin',(75.9557670849131,40.0559602807547,-5.13114256185296E-131));
#353=CARTESIAN_POINT('',(76.2057670849131,24.1059602807547,1.95331164464003E-015));
#354=CARTESIAN_POINT('Origin',(76.2057670849131,40.0559602807547,-1.02622851237059E-130));
#355=CARTESIAN_POINT('',(75.7057670849131,24.6059602807547,-1.89207930468266E-015));
#356=CARTESIAN_POINT('Origin',(75.7057670849131,40.0559602807547,0.));
#357=CARTESIAN_POINT('Origin',(76.7057670849131,40.0559602807547,-2.05245702474119E-130));
#358=CARTESIAN_POINT('Origin',(75.7057670849131,40.0559602807547,0.));
#359=CARTESIAN_POINT('Origin',(86.7057670849131,40.0559602807547,-2.2577027272153E-129));
#360=CARTESIAN_POINT('',(88.7057670849131,34.0843874055009,-3.65653380377736E-016));
#361=CARTESIAN_POINT('Origin',(88.7057670849131,40.0559602807547,-2.66819413216354E-129));
#362=CARTESIAN_POINT('',(88.1199806472862,32.6701738431278,-2.26124493000643E-015));
#363=CARTESIAN_POINT('Origin',(88.1199806472862,40.0559602807547,-1.13062246500321E-015));
#364=CARTESIAN_POINT('Origin',(88.7057670849131,33.2559602807547,-2.66819413216354E-129));
#365=CARTESIAN_POINT('Origin',(83.7057670849131,40.0559602807547,-1.64196561979295E-129));
#366=CARTESIAN_POINT('',(78.7057670849131,23.2559602807547,-6.15737107422356E-130));
#367=CARTESIAN_POINT('Origin',(78.7057670849131,40.0559602807547,-6.15737107422356E-130));
#368=CARTESIAN_POINT('Origin',(78.2057670849131,40.0559602807547,-5.13114256185297E-130));
#369=CARTESIAN_POINT('',(77.7057670849131,23.2559602807547,-4.10491404948238E-130));
#370=CARTESIAN_POINT('',(77.7057670849087,40.0559602807547,16.8));
#371=CARTESIAN_POINT('Origin',(77.7057670849087,40.0559602807547,2.35403047297516E-029));
#372=CARTESIAN_POINT('Origin',(77.7057670849087,40.0559602807547,2.35403047297516E-029));
#373=CARTESIAN_POINT('Origin',(-58.2942329150913,40.0559602807547,0.));
#374=CARTESIAN_POINT('',(-58.2942329150913,40.0559602807547,16.));
#375=CARTESIAN_POINT('Origin',(-58.2942329150913,40.0559602807547,6.65443532986793E-046));
#376=CARTESIAN_POINT('Origin',(-58.2942329150913,40.0559602807547,0.));
#377=CARTESIAN_POINT('',(-58.2942329150913,56.8559602807547,0.));
#378=CARTESIAN_POINT('',(-58.2942329150913,40.0559602807547,16.8));
#379=CARTESIAN_POINT('Origin',(-58.2942329150913,40.0559602807547,0.));
#380=CARTESIAN_POINT('Origin',(-58.2942329150913,40.0559602807547,0.));
#381=CARTESIAN_POINT('Origin',(-45.7942329150913,40.0559602807547,0.));
#382=CARTESIAN_POINT('',(-46.2942329150913,56.0059602807547,1.95331164464003E-015));
#383=CARTESIAN_POINT('Origin',(-46.2942329150913,40.0559602807547,0.));
#384=CARTESIAN_POINT('',(-45.2942329150913,55.0059602807547,-1.83084696472529E-015));
#385=CARTESIAN_POINT('Origin',(-45.2942329150913,40.0559602807547,0.));
#386=CARTESIAN_POINT('Origin',(-51.7942329150913,40.0559602807547,0.));
#387=CARTESIAN_POINT('',(-58.2942329150913,56.0059602807547,0.));
#388=CARTESIAN_POINT('Origin',(-58.2942329150913,40.0559602807547,0.));
#389=CARTESIAN_POINT('Origin',(-45.2942329150913,40.0559602807547,0.));
#390=CARTESIAN_POINT('',(-45.2942329150913,44.2439602807547,-5.12882079482912E-016));
#391=CARTESIAN_POINT('Origin',(-45.2942329150913,40.0559602807547,0.));
#392=CARTESIAN_POINT('Origin',(-70.7942329150914,40.0559602807547,0.));
#393=CARTESIAN_POINT('',(-71.2942329150914,55.8559602807547,1.93494194265282E-015));
#394=CARTESIAN_POINT('Origin',(-71.2942329150914,40.0559602807547,0.));
#395=CARTESIAN_POINT('',(-70.2942329150913,56.8559602807547,-2.05740662256755E-015));
#396=CARTESIAN_POINT('Origin',(-70.2942329150913,40.0559602807547,0.));
#397=CARTESIAN_POINT('Origin',(-71.2942329150914,56.8559602807547,0.));
#398=CARTESIAN_POINT('',(-71.2942329150914,35.8679602807547,0.));
#399=CARTESIAN_POINT('Origin',(-71.2942329150914,40.0559602807547,0.));
#400=CARTESIAN_POINT('Origin',(-64.7942329150913,40.0559602807547,0.));
#401=CARTESIAN_POINT('Origin',(-17.1285611293561,40.0559602807547,0.));
#402=CARTESIAN_POINT('Origin',(-58.2942329150913,56.0059602807547,0.));
#403=UNCERTAINTY_MEASURE_WITH_UNIT(LENGTH_MEASURE(0.01),#405,
'DISTANCE_ACCURACY_VALUE',
'Maximum model space distance between geometric entities at asserted c
onnectivities');
#404=(
GEOMETRIC_REPRESENTATION_CONTEXT(3)
GLOBAL_UNCERTAINTY_ASSIGNED_CONTEXT((#403))
GLOBAL_UNIT_ASSIGNED_CONTEXT((#405,#408,#406))
REPRESENTATION_CONTEXT('','3D')
);
#405=(
LENGTH_UNIT()
NAMED_UNIT(*)
SI_UNIT(.MILLI.,.METRE.)
);
#406=(
NAMED_UNIT(*)
SI_UNIT($,.STERADIAN.)
SOLID_ANGLE_UNIT()
);
#407=DIMENSIONAL_EXPONENTS(0.,0.,0.,0.,0.,0.,0.);
#408=(
CONVERSION_BASED_UNIT('degree',#410)
NAMED_UNIT(#407)
PLANE_ANGLE_UNIT()
);
#409=(
NAMED_UNIT(*)
PLANE_ANGLE_UNIT()
SI_UNIT($,.RADIAN.)
);
#410=PLANE_ANGLE_MEASURE_WITH_UNIT(PLANE_ANGLE_MEASURE(0.01745329252),#409);
#411=SHAPE_DEFINITION_REPRESENTATION(#412,#413);
#412=PRODUCT_DEFINITION_SHAPE('',$,#415);
#413=SHAPE_REPRESENTATION('',(#232),#404);
#414=PRODUCT_DEFINITION_CONTEXT('3D Mechanical Parts',#418,'design');
#415=PRODUCT_DEFINITION('TRSP341600 - Customer','TRSP341600 - Customer',
#416,#414);
#416=PRODUCT_DEFINITION_FORMATION('',$,#420);
#417=APPLICATION_PROTOCOL_DEFINITION('international standard',
'automotive_design',2009,#418);
#418=APPLICATION_CONTEXT(
'Core Data for Automotive Mechanical Design Process');
#419=PRODUCT_CONTEXT('3D Mechanical Parts',#418,'mechanical');
#420=PRODUCT('TRSP341600 - Customer','TRSP341600 - Customer',$,(#419));
#421=PRESENTATION_STYLE_ASSIGNMENT((#423));
#422=PRESENTATION_STYLE_ASSIGNMENT((#424));
#423=SURFACE_STYLE_USAGE(.BOTH.,#425);
#424=SURFACE_STYLE_USAGE(.BOTH.,#426);
#425=SURFACE_SIDE_STYLE($,(#427));
#426=SURFACE_SIDE_STYLE($,(#428));
#427=SURFACE_STYLE_FILL_AREA(#429);
#428=SURFACE_STYLE_FILL_AREA(#430);
#429=FILL_AREA_STYLE($,(#431));
#430=FILL_AREA_STYLE($,(#432));
#431=FILL_AREA_STYLE_COLOUR($,#433);
#432=FILL_AREA_STYLE_COLOUR($,#434);
#433=COLOUR_RGB('',0.745098039215686,0.737254901960784,0.729411764705882);
#434=COLOUR_RGB('',0.749019607843137,0.749019607843137,0.749019607843137);
ENDSEC;
END-ISO-10303-21;
